PrimaNota.ru - самый крупный в мире бесплатный архив песенных текстов, аккордов, табулатур и нот


Presidents Of The United States Of America - We're Not Going To Make It - текст песни, таба, бас-таба, видео

Регистрация Запомнить меня
Войти через:  Facebook Google Twitter Vk Yandex Mail.ru

Presidents Of The United States Of America - We're Not Going To Make It - текст песни, таба, бас-таба, видео

Печатать
Просмотров: 85
Уроки эстрадного вокала в Санкт-Петербурге
Tabbed by kingofthemods, :] first tab, dont report plz, standard tuning, 192 Bpm.

h= hammer on

No guitar in intro.


Chorus (Were no gonna make it...)
[--------------------------------------------------------------------------]
[--------------------------------------------------------------------------]
[--------------------------------------------------------------------------]
[--------------------6-6-66--8-8-88----------------------6-6-66------------]
[---6-6-66--8-8-88---4-4-44--6-6-66---6-6-66---8-8-88---4-4-44---6-6-------]
[---4-4-44--6-6-66--------------------4-4-44---6-6-66------------4-4-------]

Verse (Theres a million better bands.....)          X2
[--------------------------------------------------------------------------]
[--------------------------------------------------------------------------]
[--------------------------------------------------------------------------]
[---6-6---------------------6-6---8-8--------------------------------------]
[---4-4---6-6---8-8---8-8---4-4---6-6--------------------------------------]
[---------4-4---6-6---6-6--------------------------------------------------]

Bridge (deep in my heart....)                       X2
[--------------------------------------------------------------------------]
[--------------------------------------------------------------------------]
[--------------------------------------------------------------------------]
[--------------------------------------------------------------------------]
[------------------------4-44---4-44---------------------------------------]
[---9-99---4-44---2-22---2-22---2-22---------------------------------------]


Chorus X1
Verse  X1
Bridge X1
Chorus X1

Outro (No no no no no n- no no) Let each note ring   X2
[--------------------------------------------------------------------------]
[--------------------------------------------------------------------------]
[--------------------------------------------------------------------------]
[--------------------------------------------------------------------------]
[---4---6---9---11---------------------------------------------------------]
[--------------------------------------------------------------------------]

[--------------------------------------------------------------------------]
[--------------------------------------------------------------------------]
[--------------------------------------------------------------------------]
[---444-4---666-6---999-9---11s----444-4---666-6---999-9-------------------]
[---222-2---444-4---777-7---999----222-2---444-4---777-7-------------------]
[--------------------------------------------------------------------------]

Ending (Morphed "were not going to make it"
[--------------------------------------------------------------------------]
[--------------------------------------------------------------------------]
[--------------------------------------------------------------------------]
[--------------------------------------------------------------------------]
[---11---9-4-6-4--464------------------------------------------------------]
[--------------------------------------------------------------------------]


Email me at hazzarugby@hotmail.com for any queries, rock on!!
Добавлено: 12.04.2016
Другие материалы по этой песне:
  • Аккорды и текст

Страница создана 15.07.2012
http://primanota.ru/presidents-of-the-united-states-of-america/were-not-going-to-make-it-chords.htm
Привет, Гость.
Предлагаем пройти революционный курс по гитаре.
Подарок от PrimaNota.Ru, забирай!