PrimaNota.ru - самый крупный в мире бесплатный архив песенных текстов, аккордов, табулатур и нот


Presidents Of The United States Of America - Tiger Bomb - текст песни, таба, видео

Регистрация Запомнить меня
Войти через:  Facebook Google Twitter Vk Yandex Mail.ru

Presidents Of The United States Of America - Tiger Bomb - текст песни, таба, видео

Печатать
Просмотров: 64
-------------------------------------------------------------------------------
			     Tiger Bomb - The Presidents of the
				United States of America
-------------------------------------------------------------------------------
Tabbed by:  Adam Warburton
Written by: Chris ballew 
Album: Freaked out and small
Tuning: Standard. E,A,D,G,B,e


Intro:
  

  ... if I have the courage to go up to her and meet her.	She gives off 
e|---------------------------------------------------------------------------|
B|---------------------------------------------------------------------------|
G|---------------------------------------------------------------------------|
D|---------------------------------------------------------------------------|
A|---------------------------------------------------------------------------|
E|------------------------------------------------7-------------5----7-------|


   such a soothing vapor, cooling effect she use to sooth her temper.
e|---------------------------------------------------------------------------|
B|---------------------------------------------------------------------------|
G|---------------------------------------------------------------------------|
D|---------------------------------------------------------------------------|
A|---------------------------------5----7------7-----------(7)\--------------|
E|----7---------(7)\0--------------------------------------------4-----------|


   Wish I had all she ever needed to give her.  Every time i see her i start
e|---------------------------------------------------------------------------|
B|---------------------------------------------------------------------------|
G|---------------------------------------------------------------------------|
D|---------------------------------------------------------------------------|
A|-----------------------------------------------------5---------------------|
E|---------2--4-------4---------(4)\--0--------------------------------------|


    to Shiver.  She wraps it up tight and she holds it in.  Keeps a funny joke
e|-------------------------------------------------------4--------------------|
B|-------7-----------------------------------------------4----------------5---|
G|-------8-----------------------------------------------4----------------4---|
D|-------9----------------------------------------------------------------6---|
A|----------------------------------------------------------------------------|
E|-------7--------------------5--7-------7----------(7)\-4-------------2--0---|


    tucked in side her grin.  Maybe it's behind her wild eyes.  Now I konw why
e|-----------------------4------------------------------------------------------|
B|-----------------------4----------------------------------5-----------3-------|
G|-----------------------4----------------------------------4-----------2-------|
D|-----------------------6----------------------------------6-----------4-------|
A|-----------------------------2-------2---4-\-6---6-----7--7-----------5-------|
E|---0-------------2-----4------------------------------------------------------|




CHORUS:
          I know    that there's  fuese in side   Tiger Bomb	    X 3
e|------------2-------------------5----------0-----2-2---------|
B|--4---------2-------------------5----------0-----3-3---4-----|
G|--4---------3-------------------6----------1-----2-2---4-----|
D|--4---------4-------4---6-------7----------2-----3-3---4-----|
A|--2---------4-------------------7----------2-----0-0---2-----|
E|------------2-------2---4-------5----------0-----------------|





e|---------------------------------------------------|
B|--4--4--------4--4-----------4--4---------4--4-----|
G|--4--4--------4--4-----------4--4---------4--4-----|
D|--4--4--------4--4-----------4--4---------4--4-----|
A|--2--2--------2--2-----------2--2---------2--2-----|
E|---------------------------------------------------|





SOLO:

e|--11-----------------------------------------------------------------------|
B|-----12-------------------------11--12-------------------------------------|
G|--------11--------------11--13-----------13----13-13-13--11----------------|
D|-----------13---11--13---------------------------------------13--11--------|
A|---------------------------------------------------------------------------|
E|---------------------------------------------------------------------------|


e|---------------------------------------------------------------------------|
B|---------------------------------------------------------------------------|
G|---------------------------------------------------------------------------|
D|---------------------------------------------------------------------------|
A|--14--14--11--14--14b---14--11-----11--13--14--13--11--14--13--11-----12---|
E|---------------------------------------------------------------------------|

e|---------------------------------------------------------------------------|
B|---------------------4------4h5----4-----7----5----2-/3-/4------4----------|
G|-----------------4----------4------4----------------------------4----------|
D|--------------4----------4--4h6----4-----7--5h6----2-/3-/4------4----------|
A|--------4--6---------------------6-----------------------------------------|
E|--4--7---------------------------------------------------------------------|

e|---------------------------------------------|
B|--4-----4------------------------------------|
G|--4h6---4---4---4---------------4------7-----|
D|------------6---4------------6---------------|
A|--------------------6----/7------------------|
E|---------------------------------------------|





     ma-ma said that she was a big zero.  she proved her ma-ma wrong at the big
e|-7----------------------------------7----------------------------------------|
B|-7----------------------------------9----------------------------------------|
G|-8----------------------------------8----------------------------------------|
D|-9----------------------------------9----------------------------------------|
A|------------------------------------7----------------------------------------|
E|-----------------------------------------------------------------------------|


   rock show.  she kicked out a beat that made our feet get busy.  a cloud of
e|------------------------------------------------------------7---------------|
B|-------4----------------------------------------------------9---------------|
G|-------4----------------------------------------------------9---------------|
D|-------6--------------------------------------------------------------------|
A|-------6--------------------------------------------------------------------|
E|----------------------------------------------------------------------------|
 

   tom toms that made us all feel dizzy.  Now it's four in the morning and the
e|--5------------------------------------------------------------------------|
B|--7-------------------------------7----------------------------------------|
G|--7-------------------------------8----------------------------------------|
D|----------------------------------9----------------------------------------|
A|---------------------------------------------------------------------------|
E|---------------------------------------------------------------------------|

   
   the show is done.  Now I got to be the strong one.  Don't you know it's
e|----------------------------------12---------------11----------------------|
B|-----------------4----------------12---------------12----------------------|
G|-----------------4----------------13---------------13----------------------|
D|-----------------6---------------------------------------------------------|
A|---------------------------------------------------------------------------|
E|---------------------------------------------------------------------------|


   goin' to hurt me to.   go in the opposite direction as to you.
e|---------------------12---------10-----------------------------------------|
B|---------------------12---------10-----------------------------------------|
G|---------------------13---------11-----------------------------------------|
D|---------------------------------------------------------------------------|
A|---------------------------------------------------------------------------|
E|---------------------------------------------------------------------------|



(Chorus) 


Outro:

           I had to drop my tiger bomb.
e|---------------------------------------------------------------------------|
B|---------------------------------------------------------------------------|
G|----------2------------------3---------------4--6b-4----4------------------|
D|------0------------------------------4---4/6---------6-----6--4------------|
A|--------------------------4----------2---------------------------4\2-------|
E|--3------------3------2---------2------------------------------------------|



   Mmm    mm
e|-3------2--------7---7---------7---7--------|
B|-3------2--------7---7---------7---7--------|
G|-4------3--------8---8---------8---8--------|
D|-5------4--------9---9---------9---9--------|
A|-5------4--------9---9---------9---9--------|
E|-3------2--------7---7---------7---7--------|



Second guitar part on the second verse:


... Dizzy. now if's four.........
e|--------------------7---------------------------------------7--------------|
B|------7----------7-------7---------7--------7-----------7---7---7-------7--|
G|--8-----------8-------------------------8-----------8-------9-------9------|
D|----------9-------------------9------------------9-------------------------|
A|---------------------------------------------------------------------------|
E|---------------------------------------------------------------------------|


e|--7---------------7---------------7---------5----|
B|--7---7-------7-------7-------7---9---------7----|
G|--8-------8-----------------------9---------7----|
D|--------------------------9----------------------|
A|-------------------------------------------------|
E|-------------------------------------------------|




===============================================================================
Добавлено: 12.04.2016
Другие материалы по этой песне:
  • Аккорды и текст

Страница создана 24.02.2014
http://primanota.ru/presidents-of-the-united-states-of-america/tiger-bomb-chords.htm
Привет, Гость.
Предлагаем пройти революционный курс по гитаре.
Подарок от PrimaNota.Ru, забирай!