PrimaNota.ru - самый крупный в мире бесплатный архив песенных текстов, аккордов, табулатур и нот


Presidents Of The United States Of America - Teenage Girl - текст песни, таба, видео

Регистрация Запомнить меня
Войти через:  Facebook Google Twitter Vk Yandex Mail.ru

Presidents Of The United States Of America - Teenage Girl - текст песни, таба, видео

Печатать
Просмотров: 56
|----------------------------------------|
| Presidents Of The Usa  -  Teenage Girl |
|----------------------------------------|

Tabbed:You-Fat-So
Tuning:Normal(EBGDAE)
E-Mail:simbbada@gmail.com

:Intro:
E||--------------------------------------------------------------|
B||--------------------------------------------------------------|
G||---11--11---9--9--9--9---6--6--6--6--9--9--9--9---------------|
D||---11--11---9--9--9--9---6--6--6--6--9--9--9--9---------------|
A||---9---9----7--7--7--7---4--4--4--4--7--7--7--7---------------|
E||--------------------------------------------------------------|

E||--------------------------------------------------------------|
B||--------------------------------------------------------------|
G||---11--11--11--11---9--9--9--9---6--6--6--6--9--9--9--9-------| 
D||---11--11--11--11---9--9--9--9---6--6--6--6--9--9--9--9-------| =>X3
A||---9---9---9---9----7--7--7--7---4--4--4--4--7--7--7--7-------|
E||--------------------------------------------------------------|

E||----------------------------------------------------|
B||---*---*---*------------*---*---*-------------------|
G||---11--11--11--6--8--9--11--11--11--6--8--9---------|
D||---11--11--11--6--8--9--11--11--11--6--8--9---------|
A||---9---9---9---4--6--7--9---9---9---4--6--7---------|
E||----------------------------------------------------|

E||---------------------------------|
B||---*---*---*---------------------|
G||---11--11--11--6--8--9-----------|
D||---11--11--11--6--8--9-----------|
A||---9---9---9---4--6--7-----------|
E||---------------------------------|

:Verse:
E||------------------||---------------------------------------------|
B||------------------||---------------------------------------------|
G||---11~~~--16~~~---||---11-11-11-11--9-9-9-9--6-6-6-6--9-9-9-9----| 
D||---11~~~--16~~~---||---11-11-11-11--9-9-9-9--6-6-6-6--9-9-9-9----|=>X2
A||---9~~~~--14~~~---||---9--9--9--9---7-7-7-7--4-4-4-4--7-7-7-7----|
E||------------------||---------------------------------------------|

E||----------------------------||-------------------------------------|
B||----------------------------||-------------------------------------|
G||----------------------------||-------------------------------------|
D||---7-7--7-7-7-9-9-9--9-9-9--||--4-4-4--4-4-4--2-2-2--2-2-2---------|
A||---7-7--7-7-7-9-9-9--9-9-9--||--4-4-4--4-4-4--2-2-2--2-2-2---------|
E||---5-5--5-5-5-7-7-7--7-7-7--||--2-2-2--2-2-2--0-0-0--0-0-0---------|

                                 
E||-----------------------------||-------------------------------------|
B||-----------------------------||-*-*-*-*---*-*-*-*-*-*-*-*---*-*-*-*-|
G||-----------------------------||-9-9-9-9-x-4-4-4-4-9-9-9-9-x-4-4-4-4-|
D||---6-6-6--6-6-6-7-7-7--7-7-7-||-9-9-9-9-x-4-4-4-4-9-9-9-9-x-4-4-4-4-|
A||---6-6-6--6-6-6-7-7-7--7-7-7-||-7-7-7-7-x-2-2-2-2-7-7-7-7-x-2-2-2-2-|
E||---4-4-4--4-4-4-5-5-5--5-5-5-||-------------------------------------|

E||----------------------------------|
B||--*-*-*-*---*-*-*-*---------------|
G||---9-9-9-9-x-4-4-4-4---4-2--------|
D||---9-9-9-9-x-4-4-4-4---4-2--------|
A||---7-7-7-7-x-2-2-2-2---2-0--------|
E||----------------------------------|

:Bridge:
E||--------------------------------------------------------------|
B||--------------------------------------------------------------|
G||---11--11--11--11---9--9--9--9---6--6--6--6--9--9--9--9-------| 
D||---11--11--11--11---9--9--9--9---6--6--6--6--9--9--9--9-------| =>X4
A||---9---9---9---9----7--7--7--7---4--4--4--4--7--7--7--7-------|
E||--------------------------------------------------------------|

E||----------------------------------------------------|
B||---*---*---*------------*---*---*-------------------|
G||---11--11--11--6--8--9--11--11--11--6--8--9---------|
D||---11--11--11--6--8--9--11--11--11--6--8--9---------|
A||---9---9---9---4--6--7--9---9---9---4--6--7---------|
E||----------------------------------------------------|

E||---------------------------------|
B||---*---*---*---------------------|
G||---11--11--11--6--8--9-----------|
D||---11--11--11--6--8--9-----------|
A||---9---9---9---4--6--7-----------|
E||---------------------------------|

:Verse 2:
E||------------------||---------------------------------------------|
B||------------------||---------------------------------------------|
G||---11~~~--16~~~---||---11-11-11-11--9-9-9-9--6-6-6-6--9-9-9-9----| 
D||---11~~~--16~~~---||---11-11-11-11--9-9-9-9--6-6-6-6--9-9-9-9----|=>X2
A||---9~~~~--14~~~---||---9--9--9--9---7-7-7-7--4-4-4-4--7-7-7-7----|
E||------------------||---------------------------------------------|

E||----------------------------||-------------------------------------|
B||----------------------------||-------------------------------------|
G||----------------------------||-------------------------------------|
D||---7-7--7-7-7-9-9-9--9-9-9--||--4-4-4--4-4-4--2-2-2--2-2-2---------|
A||---7-7--7-7-7-9-9-9--9-9-9--||--4-4-4--4-4-4--2-2-2--2-2-2---------|
E||---5-5--5-5-5-7-7-7--7-7-7--||--2-2-2--2-2-2--0-0-0--0-0-0---------|
                       
E||-----------------------------||-------------------------------------|
B||-----------------------------||-*-*-*-*---*-*-*-*-*-*-*-*---*-*-*-*-|
G||-----------------------------||-9-9-9-9-x-4-4-4-4-9-9-9-9-x-4-4-4-4-|
D||---6-6-6--6-6-6-7-7-7--7-7-7-||-9-9-9-9-x-4-4-4-4-9-9-9-9-x-4-4-4-4-|
A||---6-6-6--6-6-6-7-7-7--7-7-7-||-7-7-7-7-x-2-2-2-2-7-7-7-7-x-2-2-2-2-|
E||---4-4-4--4-4-4-5-5-5--5-5-5-||-------------------------------------|

E||----------------------------------|
B||--*-*-*-*---*-*-*-*---------------|
G||---9-9-9-9-x-4-4-4-4---4-2--------|
D||---9-9-9-9-x-4-4-4-4---4-2--------|
A||---7-7-7-7-x-2-2-2-2---2-0--------|
E||----------------------------------|

:Brigde:
E||--------------------------------------------------------------|
B||--------------------------------------------------------------|
G||---11--11--11--11---9--9--9--9---6--6--6--6--9--9--9--9-------| 
D||---11--11--11--11---9--9--9--9---6--6--6--6--9--9--9--9-------| =>X2
A||---9---9---9---9----7--7--7--7---4--4--4--4--7--7--7--7-------|
E||--------------------------------------------------------------|
                                                                      
E||--------------------------------------------------------------|    
B||--------------------------------------------------------------|    
G||--11-11-11-11-11-11-11-11-16-16-16-16-16-16-16-16-------------|    
D||--11-11-11-11-11-11-11-11-16-16-16-16-16-16-16-16-------------|    
A||--9--9--9--9--9--9--9--9--14-14-14-14-14-14-14-14-------------|    
E||--------------------------------------------------------------|    
                                                                      
E||----------------------------------------|                          
B||----------------------------------------|
G||-11-11-11-11--9-9-9-9--6-6-6-6--9-9-9-9-|
D||-11-11-11-11--9-9-9-9--6-6-6-6--9-9-9-9-|
A||-9--9--9--9---7-7-7-7--4-4-4-4--7-7-7-7-|
E||----------------------------------------|

E||--------------------------------------------------------------|    
B||--------------------------------------------------------------|    
G||--11-11-11-11-11-11-11-11-16-16-16-16-16-16-16-16-------------|    
D||--11-11-11-11-11-11-11-11-16-16-16-16-16-16-16-16-------------|    
A||--9--9--9--9--9--9--9--9--14-14-14-14-14-14-14-14-------------|    
E||--------------------------------------------------------------|    
                                                                      
E||----------------------------------------|                          
B||----------------------------------------|
G||-11-11-11-11--9-9-9-9--6-6-6-6--9-9-9-9-|
D||-11-11-11-11--9-9-9-9--6-6-6-6--9-9-9-9-|
A||-9--9--9--9---7-7-7-7--4-4-4-4--7-7-7-7-|
E||----------------------------------------|

:Verse 3:
start P.M.(Palm Mute)
E||----------------------------||-------------------------------------|
B||----------------------------||-------------------------------------|
G||----------------------------||-------------------------------------|
D||---7-7--7-7-7-9-9-9--9-9-9--||--4-4-4--4-4-4--2-2-2--2-2-2---------|
A||---7-7--7-7-7-9-9-9--9-9-9--||--4-4-4--4-4-4--2-2-2--2-2-2---------|
E||---5-5--5-5-5-7-7-7--7-7-7--||--2-2-2--2-2-2--0-0-0--0-0-0---------|

E||---------------------------------------------------------|
B||---------------------------------------------------------|
G||---------------------------------------------------------|
D||---6-6-6--6-6-6-7-7-7--7-7-7-9-9-9--9-9-9----------------|
A||---6-6-6--6-6-6-7-7-7--7-7-7-9-9-9--9-9-9----------------|
E||---4-4-4--4-4-4-5-5-5--5-5-5-7-7-7--7-7-7----------------|

E||----------------------------||-------------------------------------|
B||----------------------------||-------------------------------------|
G||----------------------------||-------------------------------------|
D||---7-7--7-7-7-9-9-9--9-9-9--||--4-4-4--4-4-4--2-2-2--2-2-2---------|
A||---7-7--7-7-7-9-9-9--9-9-9--||--4-4-4--4-4-4--2-2-2--2-2-2---------|
E||---5-5--5-5-5-7-7-7--7-7-7--||--2-2-2--2-2-2--0-0-0--0-0-0---------|

E||----------------------------------|
B||----------------------------------|
G||----------------------------------|
D||---6-6-6--6-6-6-------------------|
A||---6-6-6--6-6-6-------------------|
E||---4-4-4--4-4-4-------------------|

E||----------------------------||-------------------------------------|
B||----------------------------||-------------------------------------|
G||----------------------------||-------------------------------------|
D||---7-7--7-7-7-9-9-9--9-9-9--||--4-4-4--4-4-4--2-2-2--2-2-2---------|
A||---7-7--7-7-7-9-9-9--9-9-9--||--4-4-4--4-4-4--2-2-2--2-2-2---------|
E||---5-5--5-5-5-7-7-7--7-7-7--||--2-2-2--2-2-2--0-0-0--0-0-0---------|

E||----------------------------------|
B||----------------------------------|
G||----------------------------------|
D||---6-6-6--6-6-6-------------------|
A||---6-6-6--6-6-6-------------------|
E||---4-4-4--4-4-4-------------------|
END P.M.

E||----------------------------||-------------------------------------|
B||----------------------------||-------------------------------------|
G||----------------------------||-------------------------------------|
D||---7-7--7-7-7-9-9-9--9-9-9--||--4-4-4--4-4-4--2-2-2--2-2-2---------|
A||---7-7--7-7-7-9-9-9--9-9-9--||--4-4-4--4-4-4--2-2-2--2-2-2---------|
E||---5-5--5-5-5-7-7-7--7-7-7--||--2-2-2--2-2-2--0-0-0--0-0-0---------|

E||---------------------------------------|
B||---------------------------------------|
G||---------------------------------------|
D||---6-6-6--6-6-6-7-7-7------------------|
A||---6-6-6--6-6-6-7-7-7------------------|
E||---4-4-4--4-4-4-5-5-5------------------|

E||----------------------------||-------------------------------------|
B||----------------------------||-------------------------------------|
G||----------------------------||-------------------------------------|
D||---7-7--7-7-7-9-9-9--9-9-9--||--4-4-4--4-4-4--2-2-2--2-2-2---------|
A||---7-7--7-7-7-9-9-9--9-9-9--||--4-4-4--4-4-4--2-2-2--2-2-2---------|
E||---5-5--5-5-5-7-7-7--7-7-7--||--2-2-2--2-2-2--0-0-0--0-0-0---------|

E||---------------------------------------|
B||---------------------------------------|
G||---------------------------------------|
D||---6-6-6--6-6-6-7-7-7------------------|
A||---6-6-6--6-6-6-7-7-7------------------|
E||---4-4-4--4-4-4-5-5-5------------------|

E||-------------------------------------|
B||-*-*-*-*---*-*-*-*-*-*-*-*---*-*-*-*-|
G||-9-9-9-9-x-4-4-4-4-9-9-9-9-x-4-4-4-4-| 
D||-9-9-9-9-x-4-4-4-4-9-9-9-9-x-4-4-4-4-| x4
A||-7-7-7-7-x-2-2-2-2-7-7-7-7-x-2-2-2-2-|
E||-------------------------------------|


The End..........
hope its ok

Presidents Of The Usa - Teenagegirl

Добавлено: 12.04.2016
Другие материалы по этой песне:
  • Аккорды и текст

Страница создана 07.09.2013
http://primanota.ru/presidents-of-the-united-states-of-america/teenage-girl-chords.htm
Привет, Гость.
Предлагаем пройти революционный курс по гитаре.
Подарок от PrimaNota.Ru, забирай!