PrimaNota.ru - самый крупный в мире бесплатный архив песенных текстов, аккордов, табулатур и нот


Presidents Of The United States Of America - Supermodel - текст песни, таба, видео

Регистрация Запомнить меня
Войти через:  Facebook Google Twitter Vk Yandex Mail.ru

Presidents Of The United States Of America - Supermodel - текст песни, таба, видео

Печатать
Просмотров: 190
Date: Tue, 13 Feb 1996 18:12:19 -0800
From: thwing@ix.netcom.com (Ted Thwing )
Subject: Supermodel, by the Presidents
Song:  SUPERMODEL
Artist:  THE PRESIDENTS OF THE UNITED STATES OF AMERICA
Album:  (a compilation, maybe Live at the "Crocodile")
transcribed by Andrew Thwing (thwing@ix.netcom.com)
THIS SONG IS TUNED DOWN 1/2 STEP
INTRO: (w/dist)
e|-------------------------------------------------|
B|-------------------------------------------------|
G|-------------------------------------------------|
D|--2----9--7--2--------2----9--7--2---------------|
A|--2----9--7--2--------2----9--7--2---------------|
E|--0----7--5--0--------0----7--5--0---------------|
play that twice
VERSES:  (clean tone)
e|-------------------------------------------------|
B|-------------------------------------------------|
G|-------------------------------------------------|
D|-------------------------------------------------|
A|-------------------------------------------------|
E|-(0)-(0)--7------7-------5------0---0------------|
Love child of Ghengis Khan....
repeat that thru verses
PRE-CHORUS:  (w/dist)
e|-------------------------------------------------|
B|-------------------------------------------------|
G|-------------------------------------------------|
D|-(5)(5)--9--------------7----5-5-----------------|
A|-(5)(5)--9--------------7----5-5-----------------|
E|-(3)(3)--7--------------5----3-3-----------------|
But that's impossible...Yeah, she's....
play that 3 times
CHORUS:  (clean tone)
e|-------------------------------------------------|
B|-------------------------------------------------|
G|-------------------------------------------------|
D|-------------------------------------------------|
A|-------------------------------------------------|
E|--(0)(0)------3-3--------7--7--------------------|
Supermodel, oh yeah....
play that thru chorus
At the end there is a part where the chorus gets loud.
All you do is distort the guitar and play power chords instead of
single notes.
For the bridge, play the intro a few times.

LYRICS:
Love child of Gengis Khan
And a beautiful busty Amazon
On the Death Star with her godfather
Darth Vader, and nine months later
CHORUS:
But that's impossible
Yeah she's supercolossal
She'll make a fascinating fossil
Supermodel, oh yeah
Supermodel, oh yeah
Not just a regular girl   (check it out!)
-bridge-
She's made of metal and a million miles high
Got her hair cut scraping the sky
She made it with the Terminator
Schwarzenegger, and nine months later
-chorus-
Supermodel, oh yeah
Supermodel, oh yeah
Supermodel, oh yeah
Supermodel, oh yeah
(add dist. here)
Supermodel, oh yeah (x6)
Not just a regular girl, a supermodel.

LIVE @ THE CROCODILE HE SUBSTITUTES THINGS LIKE "SUPERMARKET", "HOOKED
ON PHONICS", AND "SUPERSONICS" FOR "SUPERMODEL".
Добавлено: 28.06.2012
Другие материалы по этой песне:
  • Аккорды и текст

Страница создана 21.03.2012
http://primanota.ru/presidents-of-the-united-states-of-america/supermodel-chords.htm
Привет, Гость.
Предлагаем пройти революционный курс по гитаре.
Подарок от PrimaNota.Ru, забирай!