PrimaNota.ru - самый крупный в мире бесплатный архив песенных текстов, аккордов, табулатур и нот


Presidents Of The United States Of America - Shreds Of Boa - текст песни, таба, драм-таба, видео

Регистрация Запомнить меня
Войти через:  Facebook Google Twitter Vk Yandex Mail.ru

Presidents Of The United States Of America - Shreds Of Boa - текст песни, таба, драм-таба, видео

Печатать
Просмотров: 68
----------------------------------------|
----------------------------------------|
-10--13\8--13\6--7-8--9-10--------------|
----------------------------------------|
----------------------------------------|
----------------------------------------|
i invited salamanila poison
they brought their blushing daughter
stuffed into a tux
i invited all the guitar heroes
we threw away the guestbook and lost a thousand bucks

----------------------------------------------|
----------------------------------------------|
----------------------------------------------|
-11--9--7-------------------------------------|
-11--9--7-------------------------------------|
-9---7--5-------------------------------------|
i called all the local geniuses
they wrote the guide for the perplexed and the drunk
wild eyed they came from all directions
stomping on the dance floor and droping all their junk

----------------------------------------|
----------------------------------------|
----------------------------------------|
-44--22--44--22--4-2-7-9----------------|
-44--22--44--22--4-2-7-9----------------|    play those last 4 notes 8X each
-22--00--22--00--2-0-5-7----------------|
all ive got to show are shreds of boa
all ive got to keep is paper thin
all ive got to show are shreds of boa
smashed into the rug and vaccumed out again

----------------------------------------|
----------------------------------------|
-----4-----------4-9-9-9-9--------------|
-2-2-4-2-2-4-2-2-4-9-9-9-9--------------|
-2-2-2-2-2-4-2-2-2-7-7-7-7--------------|
-0-0---0-0-2-0-0------------------------|
?here? again
dum, dum, dum boom dum bum doo doo do ba dum doo

great song, by far the best on Love Everybody.
Добавлено: 20.03.2016
Другие материалы по этой песне:
  • Аккорды и текст

Страница создана 06.03.2012
http://primanota.ru/presidents-of-the-united-states-of-america/shreds-of-boa-chords.htm
Привет, Гость.
Предлагаем пройти революционный курс по гитаре.
Подарок от PrimaNota.Ru, забирай!