PrimaNota.ru - самый крупный в мире бесплатный архив песенных текстов, аккордов, табулатур и нот


Presidents Of The United States Of America - Jupiter - текст песни, таба, видео

Регистрация Запомнить меня
Войти через:  Facebook Google Twitter Vk Yandex Mail.ru

Presidents Of The United States Of America - Jupiter - текст песни, таба, видео

Печатать
Просмотров: 115
----------------------------------------------------------------------------
			     Jupiter - The Presidents of the
				United States of America
----------------------------------------------------------------------------
Tabbed by:  Adam Warburton
Written by: The Presidents of the United States of America
Album: Freaked out and small
Tuning: Standard. E,A,D,G,B,e





e|-----------------------------------|
B|-----------------------------------|
G|-----------------------------------|
D|--7--7-5-7p5p0---------------------|
A|--0--0-0-0-----3-5--5-5-3-5-3------|
E|------------------------------5----|






     '..Sent a probe through a mas-sive  storm, A million molecules... 
e|-------------------------------------------------------------------|
B|--10--x----10--10------x---10--10-10-10-10-10-10-------------------|
G|--10--x----10--10------x---10--10-10-10-10-10-10--9---x-9---9--x---|
D|--10--x----10--10------x---10--10-10-10-10-10-10--10--x-10--10-x---|
A|--8---x----8---8-------x---8---8--8--8--8--8--8---10--x-10--10-x---|
E|--------------------------------------------------8---x-8---8--x---|


 ...make it    warm  and  a  star is born...'
e|---------------------------------------------|
B|----------x----------------------------------|
G|-9--x--9--x---9---9---9--9-------------------|
D|-10-x--10-x---10--10--10-10---------2--------|
A|-10-x--10-x---10--10--10-10------------------|
E|-8--x--8--x---8---8---8--8---0---------------|


e|------------------------------------------------------|
B|-------------------------0-x-0-0-x-0--x-0-x-0-0-0-0---|
G|-------------------------2-x-2-2-x-2--x-2-x-2-2-2-2---|
D|-------------------------2-x-2-2-x-2--x-2-x-2-2-2-2---|
A|-------------------0-----2-x-2-2-x-2--x-2-x-2-2-2-2---|
E|------0-----4-----------------------------------------|







  '... hello from in side a cloud, the particle smasher...
e|--------------------------------------------------------|
B|-----1--------------------------------------------------|
G|-----2--------------------------------0-----------------|
D|-----3--------------------------------2-----------------|
A|--------------------------------------3-----------------|
E|--------------------------------------------------------|

 ...is maxing out and it's smelly and loud..'
e|---------------------------------------------------------|
B|----------------------------------------------------2----|
G|-------------------------1--------------------------2----|
D|-------------------------2--------------------------2----|
A|-------------------------2----------------2-/-11-\--0----|
E|---------------------------------------------------------|





 '... Jupiter,  jupiter,  massive,  passive  ball....'
e|-------------------------------------------------------------------------|
B|----10-10--------------12--12--------------------------------------------|
G|----10-10-----9--9-----12--12-----11--11---------------------------------|
D|----10-10-----10-10----12--12-----12--12-----7--7-5-7p5p0----------------|
A|----8--8------10-10----10--10-----12--12-----0--0-0-0-----3-5--5-5-3-5-3-|
E|--------------8--8----------------10--10--------------------------------3|
	To end the song, just play the first bit of this chorus over and
        over and end on an 'A'



  VARIATION:
e|--------------------------------------------------5-------5-----|
B|----------------------------------------------------------------|
G|----------------------------------------------5h6----5h6--------|
D|--------------------------------0-------------------------------|
A|--------2-----------------2----------0----0---------------------|
E|--0-----------0-----4-------------------------------------------|




| /  slide up
| \  slide down
| h  hammer-on
| p  pull-off
| x  Mute note
============================================================================
Добавлено: 21.02.2016
Другие материалы по этой песне:
  • Аккорды и текст

Страница создана 26.02.2012
http://primanota.ru/presidents-of-the-united-states-of-america/jupiter-chords.htm
Привет, Гость.
Предлагаем пройти революционный курс по гитаре.
Подарок от PrimaNota.Ru, забирай!