PrimaNota.ru - самый крупный в мире бесплатный архив песенных текстов, аккордов, табулатур и нот


Presidents Of The United States Of America - Feather Pluckn - текст песни, таба, видео

Регистрация Запомнить меня
Войти через:  Facebook Google Twitter Vk Yandex Mail.ru

Presidents Of The United States Of America - Feather Pluckn - текст песни, таба, видео

Печатать
Просмотров: 83
Intro
E-------------------------------------|
B-------------------------------------|
G-------------------------------------|
D-6h8-6--------4h6-4--------4~-2------|
A-4---4-4h6p4--2---2-4p2---2----4p2---|
E------------6-----------4----------4-|

Verse
E--------------------------|
B--------------------------|
G--------------------------|
D--------------------------|
A-8--8-8-8--8-8-9--9-9-9-9-|
E-9--9-9-9--9-9-9--9-9-9-9-|

Pre-Chorus
E---------|
B---------|
G---------|
D---------|
A-6---9---|
E-4---7---|

Chorus
E---------------|
B---------------|
G---------------|
D-6--8-----4----|
A-4--6--6--2--4-|
E-------4-----2-|

Bridge
E-----------|
B-----------|
G-----------|
D-4---6-----|
A-2-4-4-4-6-|
E---2---2-4-|
"Nobody taught them how"

Outro
E-------------------------------------|
B-------------------------------------|
G-------------------------------------|
D-6h8-6--------4h6-4--------4~-2------|
A-4---4-4h6p4--2---2-4p2---2----4p2---|
E------------6-----------4----------4-|

A billions of birdies squawkin' out loud
Talkin' in code to clams in the clouds
They send a secret message, they send it by worm,
some vibratin' spiders will receive the word

But that's totally
Feather-pluckin' insane!
Ten million monkeys all pick up guitars,
Nobody taught them how
Five thousand fishies rockin' really, really, really hard
Nobody taught them how
Check-out chicken drivin' (vinny's) little blue car
Nobody taught them how!

Flies like to fly, cause they don't like to stay
They're buzzin' in the ears of a chicken all day
Chicken understand and they pick out the code
Send a sub-sonic signal through the snot in the middle
of an elephant's long wet cold grey nose

But that's totally
feather-pluckin'
insane!
Ten million monkeys all pick up guitars,
Nobody taught them how
Five thousand froggies rockin' really, really, really hard
Nobody taught them how
Check-out chicken drivin' Vinny's little blue car
Nobody taught them how!

Oh yeah, Oh yeah

Everybody's supernova
Добавлено: 12.04.2016
Другие материалы по этой песне:
  • Аккорды и текст

Страница создана 17.04.2012
http://primanota.ru/presidents-of-the-united-states-of-america/feather-pluckn-chords.htm
Привет, Гость.
Предлагаем пройти революционный курс по гитаре.
Подарок от PrimaNota.Ru, забирай!