PrimaNota.ru - самый крупный в мире бесплатный архив песенных текстов, аккордов, табулатур и нот


Presidents Of The United States Of America - Boll Weevil - текст песни, таба, бас-таба, видео

Регистрация Запомнить меня
Войти через:  Facebook Google Twitter Vk Yandex Mail.ru

Presidents Of The United States Of America - Boll Weevil - текст песни, таба, бас-таба, видео

Печатать
Просмотров: 82
Regular tuning.

FIRST VERSE (you may talk about the ladies...)

E-----------------|
B-----------------|
G-----------------|
D-3-3-3-3-3-3-3-3-| X4
A-3-3-3-3-3-3-3-3-|
E-1-1-1-1-1-1-1-1-|

E---------------------------------|
B---------------------------------|
G-3-3-3-3-3-3-3-3-3-3-3-3---------|
D-3-3-3-3-3-3-3-3-3-3-3-3-3-3-3-3-| x1
A-1-1-1-1-1-1-1-1-1-1-1-1-3-3-3-3-|
E-------------------------1-1-1-1-|

E-----------------------|
B-----------------------|
G-3-3-3-3-3333----------|
D-3-3-3-3-3333-33333333-| x1
A-1-1-1-1-1111-33333333-|
E--------------11111111-|

E----------|
B----------|
G----------|
D-33333333- X2
A-33333333-
E-11111111-

E-------------------|
B-------------------|
G-333333333333------|
D-333333333333-3333-| X1
A-111111111111-3333-|
E--------------1111-|


E-------------------|
B-------------------|
G-33333333----------|
D-33333333-33333333-| X1
A-11111111-33333333-|
E----------11111111-|

CHORUS (they are looking for a home...)

E-------------------------------------|
B-------------------------------------|
G-33333333----------55555555----------|
D-33333333-33333333-55555555-33333333-| X1
A-11111111-33333333-33333333-33333333-|
E----------11111111----------11111111-|

SECOND VERSE (the farmer he took the boll weevil...)

E----------|
B----------|
G----------|
D-xxxxxxxx- x4
A-xxxxxxxx-
E-11111111-

E-------------------|
B-------------------|
G-333333333333------|
D-333333333333-3333-| X1
A-111111111111-3333-|
E--------------1111-|

E-------------------|
B-------------------|
G-33333333----------|
D-33333333-33333333-| X1
A-11111111-33333333-|
E----------11111111-|

E----------|
B----------|
G----------|
D-33333333- X2
A-33333333-
E-11111111-

E-------------------|
B-------------------|
G-333333333333------|
D-333333333333-3333-| X1
A-111111111111-3333-|
E--------------1111-|

E-------------------|
B-------------------|
G-33333333----------|
D-33333333-33333333-| X1
A-11111111-33333333-|
E----------11111111-|

SECOND CHORUS (yeah its full of them holes...)

E-------------------------------------|
B-------------------------------------|
G-33333333----------55555555----------|
D-33333333-33333333-55555555-33333333-| X1
A-11111111-33333333-33333333-33333333-|
E----------11111111----------11111111-|

THIRD VERSE (now this next verse is about myself...)

E----------|
B----------|
G----------|
D-33333333- x48
A-33333333-
E-11111111-

E-------------------|
B-------------------|
G-333333333333------|
D-333333333333-3333-| X1
A-111111111111-3333-|
E--------------1111-|

E-------------------|
B-------------------|
G-33333333----------|
D-33333333-33333333-| X1
A-11111111-33333333-|
E----------11111111-|

BRIDGE (now stop for a minute meg...)

E-------------------------------------|
B-------------------------------------|
G-------------------------------------|
D--------------------------------3333-| x1
A-11111111----------33333333-----3333-|
E----------11111111----------11111111-|

THIRD CHORUS (yeah he's lookin' for a home)

E----------------------------------------|
B----------------------------------------|
G-33333333----------55555555----55---3---|
D-33333333-33333333-55555555-33-55-3-3-3-| x1
A-11111111-33333333-33333333-33-33-3-1-3-|
E----------11111111----------11----1---1-|

a great song and (once you learn the structure) very easy.

enjoy.
Добавлено: 20.03.2016
Другие материалы по этой песне:
  • Аккорды и текст

Страница создана 06.04.2012
http://primanota.ru/presidents-of-the-united-states-of-america/boll-weevil-chords.htm
Привет, Гость.
Предлагаем пройти революционный курс по гитаре.
Подарок от PrimaNota.Ru, забирай!