PrimaNota.ru - самый крупный в мире бесплатный архив песенных текстов, аккордов, табулатур и нот


Premonition - Triste Realta - таба, видео

Регистрация Запомнить меня
Войти через:  Facebook Google Twitter Vk Yandex Mail.ru

Premonition - Triste Realta - таба, видео

Печатать
Просмотров: 29
-------------------------------------------------------------------------------
                             Triste Realta - Hannah Mellor
-------------------------------------------------------------------------------
Composition 2

Tuning: Standard      - time signature = 4/4

VERSE

guitar 1
e|--------------------------------------------------------------------------------|
B|--------------------------------------------------------------------------------|
G|--------------------------------------------------------------------------------|
D|--------------------------------------------------------------------------------|
A|-----7-9-11-12-9-11-----7-9-11-12-9-11-----7-9-11-12-9-11-----7-9-11-12-11-9-7--|
E|-7-9----------------7-9----------------7-9----------------7-9-------------------|

guitar 2
e|--------------------------------------------------------------------------------|
B|--------------------------------------------------------------------------------|
G|--------------------------------------------------------------------------------|
D|---------6--7--4--6---------6--7--4--6---------6--7--4--6---------6--7--6--4--2-|
A|---------6--7--4--6---------6--7--4--6---------6--7--4--6---------6--7--6--4--2-|
E|---------4--5--2--4---------4--5--2--4---------4--5--2--4---------4--5--4--2--0-|


BRIDGE

guitar 1
e|--------------------------------------------------------------------------------|
B|--------------------------------------------------------------------------------|
G|-16-16-16-16-14-14-14-14-13-13-13-13-11-11-11-11--------------------------------|
D|--------------------------------------------------------------------------------|
A|-14-14-14-14-12-12-12-12-11-11-11-11--9--9--9--9--------------------------------|
E|--------------------------------------------------------------------------------|

guitar 2
e|--------------------------------------------------------------------------------|
B|--------------------------------------------------------------------------------|
G|-4-4-4-4------------------------------------------------------------------------|
D|-4-4-4-4-7-7-7-7-6-6-6-6-4-4-4-4------------------------------------------------|
A|-2-2-2-2-7-7-7-7-6-6-6-6-4-4-4-4------------------------------------------------|
E|---------5-5-5-5-4-4-4-4-2-2-2-2------------------------------------------------|

guitar 3
e|--------------------------------------------------------------------------------|
B|--------------------------------------------------------------------------------|
G|-4-4-4-4-6-6-6-6-10-10-10-10-11-11-11-11----------------------------------------|
D|--------------------------------------------------------------------------------|
A|-2-2-2-2-4-4-4-4--8--8--8--8--9--9--9--9----------------------------------------|
E|--------------------------------------------------------------------------------|


CHORUS

guitar 1
e|--------------------------------------------------------------------------------|
B|--------------------------------------------------------------------------------|
G|-9-9-9-9---------12-12-12-12-14-14-14-14----------------------------------------|
D|-9-9-9-9-9-9-9-9-12-12-12-12-14-14-14-14----------------------------------------|
A|-7-7-7-7-9-9-9-9-10-10-10-10-12-12-12-12----------------------------------------|
E|---------7-7-7-7----------------------------------------------------------------|

guitar 2
e|--------------------------------------------------------------------------------|
B|--------------------------------------------------------------------------------|
G|-1-1-1-1-4-4-4-4----------------------------------------------------------------|
D|-2-2-2-2-4-4-4-4-5-5-5-5-7-7-7-7------------------------------------------------|
A|-2-2-2-2-2-2-2-2-5-5-5-5-7-7-7-7------------------------------------------------|
E|-0-0-0-0---------3-3-3-3-5-5-5-5------------------------------------------------|

guitar 3
e|--------------------------------------------------------------------------------|
B|--------------------------------------------------------------------------------|
G|-9-9-9-9-11-11-11-11-12-12-12-12-7-7-7-7-8-8-8-8--------------------------------|
D|--------------------------------------------------------------------------------|
A|-7-7-7-7-9--9--9--9--10-10-10-10-5-5-5-5-6-6-6-6--------------------------------|
E|--------------------------------------------------------------------------------|

                      - time signature = 3/4
MIDDLE 8 (outro)

guitar 1
e|--------------------------------------------------------------------------------|
B|--------------------------------------------------------------------------------|
G|-7-9-10-7-9-10-7-9-10-----------------------------------------------------------|
D|--------------------------------------------------------------------------------|
A|--------------------------------------------------------------------------------|
E|--------------------------------------------------------------------------------|

guitar 2
e|--------------------------------------------------------------------------------|
B|--------------------------------------------------------------------------------|
G|-----------5-5-5-5-5------------------------------------------------------------|
D|-3-3-3-3-3-5-5-5-5-5-5-5-5-5-5--------------------------------------------------|
A|-3-3-3-3-3-3-3-3-3-3-5-5-5-5-5--------------------------------------------------|
E|-1-1-1-1-1-----------3-3-3-3-3--------------------------------------------------|

guitar 3
e|--------------------------------------------------------------------------------|
B|-8-10-12-8-10-12-8-10-12--------------------------------------------------------|
G|--------------------------------------------------------------------------------|
D|--------------------------------------------------------------------------------|
A|--------------------------------------------------------------------------------|
E|--------------------------------------------------------------------------------|


Добавлено: 15.12.2015
Другие материалы по этой песне:
  • Аккорды и текст

Страница создана 15.12.2015
http://primanota.ru/premonition/triste-realta-chords.htm
Привет, Гость.
Предлагаем пройти революционный курс по гитаре.
Подарок от PrimaNota.Ru, забирай!