PrimaNota.ru - самый крупный в мире бесплатный архив песенных текстов, аккордов, табулатур и нот


Prehistöricos - Con Tu Cuerpo El Huracán - таба, видео

Регистрация Запомнить меня
Войти через:  Facebook Google Twitter Vk Yandex Mail.ru

Prehistöricos - Con Tu Cuerpo El Huracán - таба, видео

Печатать
Просмотров: 28
-------------------------------------------------------------------------------
                   Con tu Cuerpo el Huracán - Prehistóricos
-------------------------------------------------------------------------------
Tabbed by: fred_kgr
E-mai-: fred_kgr@hotmail.com

Tuning: Standard

Al principio es un poco complicada, pero si te acostumbras a las posturas la sacas.

E|----------------------------|----------------------------|
B|-----------3-----------3----|-----------3-----------3----|
G|-----2-----------2----------|-----2-----------2----------|
D|--4-----4-----------4-------|--------4-----------4-------|
A|----------------------------|----------------------------|
E|----------------------------|----------------------------|


----------------------------|----------------------------|
-----------7-----------7----|-----------7-----------7----|
-----6-----------6----------|-----6-----------6----------|
--7-----7-----------7-------|--------7-----------7-------|
----------------------------|----------------------------|
----------------------------|----------------------------|


----------------------------|----------------------------|
-----------8-----------10---|-----------8-----------8----|
-----7-----------7----------|-----7-----------7----------|
--9-----9-----------9-------|--------9-----------9-------|
----------------------------|----------------------------|
----------------------------|----------------------------|


----------------------------|----------------------------|
-----------10----------10---|-----------10---------------|
-----11----------11---------|-----11----------11---------|
--12----12----------12------|--11----11----------11\-----|
----------------------------|----------------------------|
----------------------------|----------------------------|


----------------------------|----------------------------|
-----------3-----------3----|-----------3-----------3----|
-----2-----------2----------|-----2-----------2----------|
--4-----4-----------4-------|--------4-----------4-------|
----------------------------|----------------------------|
----------------------------|----------------------------|


----------------------------|----------------------------|
-----------7-----------7----|-----------7-----------7----|
-----6-----------6----------|-----6-----------6----------|
--7-----7-----------7-------|--------7-----------7-------|
----------------------------|----------------------------|
----------------------------|----------------------------|


----------------------------|----------------------------|
-----------8-----------10---|-----------8-----------8----|
-----7-----------7----------|-----7-----------7----------|
--9-----9-----------9-------|--------9-----------9-------|
----------------------------|----------------------------|
----------------------------|----------------------------|


----------------------------|----------------------------|
-----------10----------10---|-----------10---------------|
-----11----------11---------|-----11----------11---------|
--12----12----------12------|--11----11----------11------|
----------------------------|----------------------------|
----------------------------|----------------------------|


----------------------------|----------------------------|
-----------3-----------3----|-----------3-----------3----|
-----2-----------2----------|-----2-----------2----------|
--4-----4-----------4-------|--------4-----------4-------|
----------------------------|----------------------------|
----------------------------|----------------------------|


----------------------------|----------------------------|
-----------7-----------7----|-----------7-----------7----|
-----6-----------6----------|-----6-----------6----------|
--7-----7-----------7-------|--------7-----------7-------|
----------------------------|----------------------------|
----------------------------|----------------------------|


----------------------------|----------------------------|
-----------8-----------10---|-----------8-----------8----|
-----7-----------7----------|-----7-----------7----------|
--9-----9-----------9-------|--------9-----------9-------|
----------------------------|----------------------------|
----------------------------|----------------------------|


----------------------------|----------------------------|
-----------10----------10---|-----------10---------------|
-----11----------11---------|-----11----------11---------|
--12----12----------12------|--11----11----------11------|
----------------------------|----------------------------|
----------------------------|----------------------------|


----------------------------|----------------------------|
-----------3-----------3----|-----------3-----------3----|
-----2-----------2----------|-----2-----------2----------|
--4-----4-----------4-------|--------4-----------4-------|
----------------------------|----------------------------|
----------------------------|----------------------------|


----------------------------|----------------------------|
-----------7-----------7----|-----------7-----------7----|
-----6-----------6----------|-----6-----------6----------|
--7-----7-----------7-------|--------7-----------7-------|
----------------------------|----------------------------|
----------------------------|----------------------------|


----------------------------|----------------------------|
-----------8-----------10---|-----------8-----------8----|
-----7-----------7----------|-----7-----------7----------|
--9-----9-----------9-------|--------9-----------9-------|
----------------------------|----------------------------|
----------------------------|----------------------------|


----------------------------|----------------------------|----------------|
-----------10----------10---|-----------10---------------|--------7--8----|
-----11----------11---------|-----11----------11---------|--7--9----------|
--12----12----------12------|--11----11----------11------|----------------|
----------------------------|----------------------------|----------------|
----------------------------|----------------------------|----------------|


----------------|----------------------------|----------------|----------------|
--------7--8----|--10----8-----7--------10---|--10-8--7-------|--------7--8----|
--7--9----------|--------------------9-------|-----------9----|--7--9----------|
----------------|----------------------------|----------------|----------------|
----------------|----------------------------|----------------|----------------|
----------------|----------------------------|----------------|----------------|


----------------|----------------------------|----------------|-------|-------|
--------7--8----|--10----8-----7--------10---|--10-8--7-------|-------|-------|
--7--9----------|--------------------9-------|-----------9----|-------|-------|
----------------|----------------------------|----------------|-------|-------|
----------------|----------------------------|----------------|-------|-------|
----------------|----------------------------|----------------|-------|-------|


-------|-------|-------|-------|-------|-------|----------------------------|
-------|-------|-------|-------|-------|-------|-----------3-----------3----|
-------|-------|-------|-------|-------|-------|-----2-----------2----------|
-------|-------|-------|-------|-------|-------|--4-----4-----------4-------|
-------|-------|-------|-------|-------|-------|----------------------------|
-------|-------|-------|-------|-------|-------|----------------------------|


----------------------------|----------------------------|
-----------3-----------3----|-----------7-----------7----|
-----2-----------2----------|-----6-----------6----------|
--------4-----------4-------|--7-----7-----------7-------|
----------------------------|----------------------------|
----------------------------|----------------------------|


----------------------------|----------------------------|
-----------7-----------7----|-----------8-----------10---|
-----6-----------6----------|-----7-----------7----------|                  
--------7-----------7-------|--9-----9-----------9-------|
----------------------------|----------------------------|
----------------------------|----------------------------|


----------------------------|----------------------------|
-----------8-----------8----|-----------10----------10---|
-----7-----------7----------|-----11----------11---------|
--------9-----------9-------|--12----12----------12------|
----------------------------|----------------------------|
----------------------------|----------------------------|


----------------------------|----------------------------|
-----------10---------------|-----------3-----------3----|
-----11----------11---------|-----2-----------2----------|
--11----11----------11------|--4-----4-----------4-------|
----------------------------|----------------------------|
----------------------------|----------------------------|


----------------------------|----------------------------|
-----------3-----------3----|-----------7-----------7----|
-----2-----------2----------|-----6-----------6----------|
--------4-----------4-------|--7-----7-----------7-------|
----------------------------|----------------------------|
----------------------------|----------------------------|


----------------------------|----------------------------|
-----------7-----------7----|-----------8-----------8----|
-----6-----------6----------|-----7-----------7----------|
--------7-----------7-------|--9-----9-----------9-------|
----------------------------|----------------------------|
----------------------------|----------------------------|


----------------------------|-------|-------|----------------|----------------|
--8--------8-----------8----|-------|-------|--------7--8----|--------7--8----|
-----7-----------7----------|-------|-------|--7--9----------|--7--9----------|
--------9-----------9-------|-------|-------|----------------|----------------|
----------------------------|-------|-------|----------------|----------------|
----------------------------|-------|-------|----------------|----------------|


----------------------------|----------------|----------------|----------------|
--10----8-----7--------10---|--10-8--7-------|--------7--8----|--------7--8----|
--------------------9-------|-----------9----|--7--9----------|--7--9----------|
----------------------------|----------------|----------------|----------------|
----------------------------|----------------|----------------|----------------|
----------------------------|----------------|----------------|----------------|


----------------------------|----------------|----------------|----------------|
--10----8-----7--------10---|--10-8--7-------|--------7--8----|--------7--8----|
--------------------9-------|-----------9----|--7--9----------|--7--9----------|
----------------------------|----------------|----------------|----------------|
----------------------------|----------------|----------------|----------------|
----------------------------|----------------|----------------|----------------|


----------------------------|----------------|----------------|----------------|
--10----8-----7--------10---|--10-8--7-------|--------7--8----|--------7--8----|
--------------------9-------|-----------9----|--7--9----------|--7--9----------|
----------------------------|----------------|----------------|----------------|
----------------------------|----------------|----------------|----------------|
----------------------------|----------------|----------------|----------------|


----------------------------|----------------|-------||
--10----8-----7--------10---|--10-8--7-------|-------||
--------------------9-------|-----------9----|--7----||
----------------------------|----------------|-------||
----------------------------|----------------|-------||
----------------------------|----------------|-------||




************************************

| /   s-ide up
| \   s-ide down
| h   hammer-on
| p   pu---off
| ~   vibrato
| +   harmonic
| x   Mute note
| b   Bend
| pb  Pre-bend
| br  Bend re-ease
| pbr Pre-bend re-ease
| brb Bend re-ease bend

************************************
Добавлено: 26.12.2015
Другие материалы по этой песне:
  • Аккорды и текст

Страница создана 26.12.2015
http://primanota.ru/prehistoricos/con-tu-cuerpo-el-huracan-chords.htm
Привет, Гость.
Предлагаем пройти революционный курс по гитаре.
Подарок от PrimaNota.Ru, забирай!