PrimaNota.ru - самый крупный в мире бесплатный архив песенных текстов, аккордов, табулатур и нот


Pregnant Whale Pain - Mythical Creature - таба, видео

Регистрация Запомнить меня
Войти через:  Facebook Google Twitter Vk Yandex Mail.ru

Pregnant Whale Pain - Mythical Creature - таба, видео

Печатать
Просмотров: 58
Artist - Pregnant Whale Pain
Album - Pregnant Whale Pain
Song - Mythical Creature
Tabbed by - Basher89

All Guitars - D Standard (D G C F A D)

BPM - 128

b - Bend
. - Palm Mute
/ - Slide Up
\ - Slide Down
t - Tremolo Pick


For the intro, slide up and down the three high strings while doing pick scrapes over the pickups.

    Intro (0:14)

Guitar 1

D|----------------------------------------------------------------------------------------------|
A|----------------------------------------------------------------------------------------------|
F|-9------------------------------9----------------------------------9--------------------------|
C|-9---2--------------------------9---2------------------------------9---2----------------------|
G|-7---2-----7-7-7-7---7-7---7----7---2-----7-7-7-7---7-7---7---7-7--7---2---7---7--7-7---7-----|
D|-----0-----6-6-6-5---6-5---4--------0-----6-6-6-5---6-5---4---5-6------0---6---5--6-5---4-----|

|-----------------------------------|
|-----------------------------------|
|-9---------------------------------|
|-9---2-----------------------------|
|-7---2-----7-7-7-7---7-7---7---7-7-|
|-----0-----6-6-6-5---6-5---4---5-6-|

Guitar 2


D|----------------------------------------------------------------------------------------------|
A|----------------------------------------------------------------------------------------------|
F|-9---------1010109---109---8----9---------1010109---109---8---9-10-9-------10--9--109---8-----|
C|-9---------8-8-8-7---8-7---6----9---------8-8-8-7---8-7---6---7-8--9-------8---7--8-7---6-----|
G|-7------------------------------7----------------------------------7--------------------------|
D|-----0------------------------------0----------------------------------0----------------------|

|-----------------------------------|
|-----------------------------------|
|-9---------1010109---109---8---9-10|
|-9---------8-8-8-7---8-7---6---7-8-|
|-7---------------------------------|
|-----0-----------------------------|

    Verse (0:31)

Guitar 1

D|---------------------------------------------------------------------------------------------|
A|---------------------------------------------------------------------------------------------|
F|-9----------------------------9-----------------------------------9--------------------------|
C|-9-----2----------------------9---2-------------------------------9---2----------------------|
G|-7-----2---7---7--7-7---7-----7---2-----7-7-7-7---7-7---7---7-7---7---2---7---7--7-7---7-----|
D|-------0---6---5--6-5---4---------0-----6-6-6-5---6-5---4---5-6-------0---6---5--6-5---4-----|

|-----------------------------------|
|-----------------------------------|
|-9---------------------------------| (Play all 2x)
|-9---2-----------------------------|
|-7---2-----7-7-7-7---7-7---7---7-7-|
|-----0-----6-6-6-5---6-5---4---5-6-|

Guitar 2

D|---------------------------------------------------------------------------------------------|
A|---------------------------------------------------------------------------------------------|
F|-9---------10--9--109---8-----9---------1010109---109---8---9-10--9-------10--9--109---8-----|
C|-9---------8---7--8-7---6-----9---------8-8-8-7---8-7---6---7-8---9-------8---7--8-7---6-----|
G|-7----------------------------7-----------------------------------7--------------------------|
D|-------0--------------------------0-----------------------------------0----------------------|


|-----------------------------------|
|-----------------------------------|
|-9---------1010109---109---8---9-10| (Play all 2x)
|-9---------8-8-8-7---8-7---6---7-8-|
|-7---------------------------------|
|-----0-----------------------------|

(No woes) My mouth is a fine paintbrush
(So many holes) Painting on your retina
(Never lonely) Your life's an exhibition
(So many fall for me) I am our self-made vision


    Pre-Chorus (1:01)

Guitar 1

D|-------------------------------------------------------------------------------------|
A|-------------------------------------------------------------------------------------|
F|-9------------7-7-7-6---5---3b---3~----------------------------7-7-7-6---5---3b---3--|
C|-9----2--5------------------------------------------------5--------------------------|
G|-7----2--5--------------------------5--------4-------4----5--------------------------|
D|------0--3--------------------------------3-------3-------3--------------------------|

|--------------------------------------------------|
|--------------------------------------------------|
|--------------------------------------------------|
|--------------------------------------------------|
|-5--------4-------4-------------------------------|
|-------3-------3-------3---3--3-3-0-3---0---0-3---|

Guitar 2

D|-----------------------------------------------------------------5-------------------|
A|--------------6-6-6-5---4----3~--3~----------------------------6---6-6---3----3~--3~-|
F|-9-----------------------------------------------------------------------------------|
C|-9----2--5--------------------------4--------3-------3----5--------------------------|
G|-7----2--5--------------------------------2-------2-------5--------------------------|
D|------0--3------------------------------------------------3--------------------------|

|--------------------------------------------------|
|--------------------------------------------------|
|--------------------------------------------------|
|-4--------3-------3-------------------------------|
|-------2-------2-------5---5--5-5-2-5---2---2-5---|
|--------------------------------------------------|

(Take a look)
This is me, so mysterious
Hiding my face, so you never find out that I don't exist

    (1:22)

Guitar 1

D|---|
A|---|
F|---| Play eighth notes in the background, with intermittent pauses (listen to song)
C|-2-|
G|-2-| (On second time, play the un-muted chord in place of the pauses)
D|-0-|
   .

|--------------------------|
|--------------------------|
|--------------------------| (Play all 2x)
|-2-2-2--------------------|
|-2-2-2--------------------|
|-0-0-0-4b--0--3----0--3---|
  . . .
Guitar 2

D|---------------3-----4---|
A|-----4---5---------------|
F|-------------------------| 3x
C|-------------------------|
G|-------------------------|
D|-0-0---0---0-0---0-0---0-|
   . .   .   . .   . .   .

D|-------------------------|
A|-------------------------|
F|-------8b---7b-------7b--| (Play all 2x)
C|----------9-------9------|
G|-------------------------|
D|-0-0-0-------------------|
   . . .

Keep making up myself (painting, framing, nailing)

    Chorus (1:49)

Both Guitars

D|--------------------------------------------------------------------------------|
A|--------------------------------------------------------------------------------|
F|--------------------------------------------------------------------------------|
C|-----------------7------------------------------------------------5---7---------|
G|-2----2----2-----7-------2----2----2-----2--------2----2----2-----5---7---------|
D|-0----3----2-----5-------0----3----2-----2--------0----3----2-----3---5---------|

|---------------------------------|
|---------------------------------|
|---------------------------------|
|---------------------------------|
|-2----2----2----------2--2--7\-2-|
|-0----3----2----------0--0--7\-0-|
                       .  .     .

This frame won't keep me from getting off the wall
My nose will poke your cheek, and together we will fall

    Intro
    Verse (1x only)
    Pre-Chorus
    Chorus

    

    Breakdown (4:00)

Both guitar

D|----------------------|
A|----------------------|
F|----------------------|
C|----------------------|
G|-2--7--7\-2--2--2--7--|
D|-0--7--7\-0--0--0--7--|
   .        .  .  .     

Guitar 1

D|---------------------------------------------------------------------------|
A|---------------------------------------------------------------------------|
F|---------------------------------------------------------------------------| 5x
C|---------------------------------------------------------------------------|
G|-7\-------7\-------5-7-7\----------7--7\-------7\-------5-7-7\----------7--|
D|-7\-0--0--7\-0--0------7\-0--0--0--7--7\-0--0--7\-0--0------7\-0--0--0--7--|
      .  .     .  .         .  .  .        .  .     .  .         .  .  .

Guitar 2

D|---------------------------------------------------------------------------|
A|---------------------------------------------------------------------------|
F|---------------------------------------------------------------------------| 5x
C|-------------------4-6-----------------------------------------------------|
G|-7\-------7\-----------7\----------7--7\-------7\-------5-7-7\----------7--|
D|-7\-0--0--7\-0--0---------0--0--0--7--7\-0--0--7\-0--0------7\-0--0--0--7--|
      .  .     .  .         .  .  .        .  .     .  .         .  .  .

Or you can play the "solo" from the intro on the third time (4:27)
Play the riff again the fifth time


    (5:01)

Guitar 1

D|--------------------------------------|
A|--------------------------------------|
F|--------------------------------------| 2x
C|--------------------------------------|
G|-2--2--2--7\-2--2--5-7-7\-2--2--2--7\-|
D|-0--0--0--7\-0--0------7\-0--0--0--7\-|
   .  .  .  .  .  .  . . .  .  .  .  .

|-----|
|-----|
|-----| (Played twice, let ring out)
|-----|
|-2---|
|-0---|

Two guitars play this chord; one is palm muted, the other isn't


Guitar 2 (clean tone)

D|--------------------------------------|
A|--------------------------------------|
F|-----0----1---------------------------| 2x
C|----------------2---------------------|
G|-2------------------------------------|
D|--------------------------------------|

|---------------------------------------------------------------------|
|---------------------------------------------------------------------|
|-----0----1-----------------------------0----1-----------------------|
|----------------2----------------------------------2-----------------|
|-2-------------------2--------------2-------------------2------------|
|-------------------------------------------------------------5----4--|


Guitar 1

D|-------------------------|
A|-------------------------|
F|-------------------------|
C|-5-----------------------|
G|-5-------------------2-5-|
D|-3-------3-4-5-3~--0-----|

Guitar 2

D|-------------------------|
A|-------------------------|
F|-------------------------|
C|-------------------------|
G|---------5-6-7-5~--------|
D|-3-----------------------|


I materialize


    Outro (5:28)

Guitar 1

D|-----------------------------------------------------------------|
A|-----------------------------------------------------------------|
F|-----------------------------------------------------------------| 6x
C|-7---7---7---7-9-10--9-7-7---7---5---5---5---5---6---6---6---6---|
G|-7---7---7---7-9-10--9-7-7---7---5---5---5---5---7---7---7---7---|
D|-5---5---5---5-7-8---7-5-5---5---3---3---3---3---4---4---4---4---|
   .   .   .   . . .   . . .   .   .   .   .   .   .   .   .   .  

(Palm mute first four times, play un-muted last two times)


Guitar 2 (still clean)

D|---------------------------0-------------------------------------|
A|---------------0-1-----------------------------------------------|
F|-2-------2---0---------2-------2-0-------0---0---1-----1-1---1---| 6x
C|-------2---2---------2-------2---------2---2---2-----2-----2---2-|
G|-----------------------------------------------------------------|
D|-----------------------------------------------------------------|


On the fifth time (entrance is at 6:05), a distorted third guitar comes in

Guitar 3

D|-----------------------------------------------------------------|
A|-----------------------------------------------------------------|
F|-----------------------------------------------------------------|
C|---------------------------------------------5t--6t--------------|
G|-----------------------------------------------------------------|
D|-----------------------------------------------------------------|

|---------------------------0-------------------------------------|
|---------------0-1-----------------------------------------------|
|-2-------2---0---------2-------2-0-------0---0---1-----1-1---1---|
|-------2---2---------2-------2---------2---2---2-----2-----2---2-|
|-----------------------------------------------------------------|
|-----------------------------------------------------------------|


Guitar 1

D|-------|
A|-------|
F|-------| (Let ring out)
C|-2-----|
G|-2-----|
D|-0-----|

Guitars 2 + 3

D|-------|
A|-------|
F|-------| (Let ring out)
C|-6~----|
G|-------|
D|-------|


My voice, my smell, the way I feel
Everything has changed
My master plan has been fulfilled
For its name, my name has stayed the same


Please message me before rating if you have any revisions. Hope this tab helps those of you who ARE interested
in this up-and-coming band. :)
Добавлено: 17.04.2016
Вам также может быть интересно:
Другие материалы по этой песне:
  • Аккорды и текст

Страница создана 17.04.2016
http://primanota.ru/pregnant-whale-pain/mythical-creature-chords.htm
Привет, Гость.
Предлагаем пройти революционный курс по гитаре.
Подарок от PrimaNota.Ru, забирай!