PrimaNota.ru - самый крупный в мире бесплатный архив песенных текстов, аккордов, табулатур и нот


Pregnant Whale Pain - My Name - таба, видео

Регистрация Запомнить меня
Войти через:  Facebook Google Twitter Vk Yandex Mail.ru

Pregnant Whale Pain - My Name - таба, видео

Печатать
Просмотров: 77
Artist - Pregnant Whale Pain
Album - Pregnant Whale Pain
Song - My Name
Tabbed by - Basher89

All Guitars - D Standard (D G C F A D)

BPM - 90

b - Bend
. - Palm Mute
/ - Slide Up
\ - Slide Down
t - Tremolo Pick
h - Hammer On
p - Pull Off
x - Mute


    Intro (0:00)

Guitars 1 and 2

D|--------------------------------------------------|
A|--------------------------------------------------|
F|--------------------------------------------------|
C|------------0-----2----------------0------2----0--|
G|-2--2--2--2-1--2--3-----2--2--2--2-1--2-2-3--2-1--|
D|-0--0--3--0----0--------0--0--3--0----0-3----3----|
   .  .  .  . .  .  .     .  .  .  . .  . . .  . .

|-----------------------------------------------------------|
|-----------------------------------------------------------|
|-----------------------------------------------------------|
|------------0-----2----------------0------2----0----0------|
|-2--2--2--2-1--2--3-----2--2--2--2-1--2-2-3--2-1--2-1------|
|-0--0--3--0----0--------0--0--3--0----0-3----3----3-----3~-|
  .  .  .  . .  .  .     .  .  .  . .  . . .  . .  . .      


    Verse (0:12)

Repeat intro riff


I'm grinning as I write this on my hand
Any change is a win when there's nothing you have
I be what I pretend -- it only take a step
I'm gonna fake it until I become it


Guitars 1 and 2 (0:24)


D|-----------------------------------------------------------------------------------|
A|-----------------------------------------------------------------------------------|
F|-----------------------------------------------------------------------------------|
C|-----------------------------------------------------------------------------------|
G|----------------8-----2--2--2--2-2--2--2-----------------8----------------------0--|
D|-3--7--7--7--7-----7--3--0--0--0-3--0--1--3--6--7--7--7-----7--0--0--0-6--0--1--0--|
                              .  .                               .  .  .     

|-----------------------------------------------------------------------------------|
|-----------------------------------------------------------------------------------|
|-----------------------------------------------------------------------------------|
|-----------------------------------------------------------------------------------|
|----------------8-----2--2--2--2-2--2--2-----------------8-----2--2--2--2-2--2--2--|
|-3--7--7--7--7-----7--3--0--0--0-3--0--1--3--6--7--7--7-----7--3--0--0--0-3--0--1--|
                             .  .                                     .  .  


Be my fulfilled desire
I'm tired being yours
Keep the bed on fire
Until it melts and flows


    Play intro riff again, but without the palm mutes (0:43)


    Pre-Chorus (0:54)


Guitar 1

D|--------------------------------------------------|
A|--------------------------------------------------|
F|--------------------------------------------------|
C|------------0-----2----------------0------2----0--|
G|-2--2--2--2-1--2--3-----2--2--2--2-1--2-2-3--2-1--|
D|-0--0--3--0----0--------0--0--3--0----0-3----3----|

|-----------------------------------------------------------|
|-----------------------------------------------------------|
|-----------------------------------------------------------|
|------------0-----2----------------0------2----0----0------|
|-2--2--2--2-1--2--3-----2--2--2--2-1--2-2-3--2-1--2-1------|
|-0--0--3--0----0--------0--0--3--0----0-3----3----3-----3~-|


Guitar 2

D|----------------------------------|           |---------------|
A|-----9-----11----9-----11----12---|           |-----11----12\-|
F|-9-12--9-12--9-12--9-12--9-12-----| 4x, then  |-9-12--9-12----|
C|----------------------------------|           |---------------|
G|----------------------------------|           |---------------|
D|----------------------------------|           |---------------|


You hate me 'cause I beat you in your game
Yet you needed someone to teach you how to play
Never bet on my thoughts 'cause they might fade
Dive in me, you might see them change their shape



Guitars 1 and 2 (1:06)


D|-----------------------------------------------------------------------------------|
A|-----------------------------------------------------------------------------------|
F|-----------------------------------------------------------------------------------|
C|-----------------------------------------------------------------------------------|
G|----------------8-----2--2--2--2-2--2--2-----------------8----------------------0--|
D|-3--7--7--7--7-----7--3--0--0--0-3--0--1--3--6--7--7--7-----7--0--0--0-6--0--1--0--|
                              .  .                               .  .  .     

|--------------------------------------------------------------------------------------|
|--------------------------------------------------------------------------------------|
|--------------------------------------------------------------------------------------|
|--------------------------------------------------------------------------------------|
|----------------8-----2--2--2--2-2--2--2-----------------8-----2--2--2--2-2--2--2--2--|
|-3--7--7--7--7-----7--3--0--0--0-3--0--1--3--6--7--7--7-----7--3--0--0--0-3--0--1--0--|
                             .  .                                     .  .  


    Chorus (1:25)

Guitars 1 and 2

D|---------------------------------------------------------|
A|---------------------------------------------------------|
F|---------------------------------------------------------|
C|---------------------------------------------------------|
G|-2----3--2---5------5--2-----2----3-2----5------5--2-----|
D|-0----1--0---6------6--3-----0----1-0----6------6--3-----|

|------------------------------------------------|
|------------------------------------------------|
|------------------------------------------------|
|------------------------------------------------|
|-2----3--2---5------5--2-----2----3--2---5------|
|-0----1--0---6------6--3-----0----1--0---6------|


Then I'll write my name in your fluid sheet
Once it's dry, you'll never get it out of it


    Bridge (1:46)

Guitars 1 and 2

D|--------------------------------------------------|
A|--------------------------------------------------|
F|--------------------------------------------------|
C|------------0-----2----------------0------2----0--|
G|-2--2--2--2-1--2--3-----2--2--2--2-1--2-2-3--2-1--|
D|-0--0--3--0----0--------0--0--3--0----0-3----3----|

|------------------------------------------------------------------------------------|
|------------------------------------------------------------------------------------|
|------------------------------------------------------------------------------------|
|------------0-----2----------------0------2----0----2------0-----2----0----2--0-----|
|-2--2--2--2-1--2--3-----2--2--2--2-1--2-2-3--2-1--2-3------1-----3----1--2-3--1--2--|
|-0--0--3--0----0--------0--0--3--0----0-3----3----3-----3~----3-----3----3-------3--|



Guitar 1

D|-------------------------------------------------------|
A|-------------------------------------------------------|
F|------------------4---------------------7-------4---x\-|
C|-2------------------5--------5--5--5------5-5b~---5-x\-|
G|-2--------------7-----------------------------------x\-|
D|-0-----------------------------------------------------|


Guitar 2

D|-------------------------------------------------------|
A|-------------------------------------------------------|
F|------------------4b~-----4~-4-7-7b~-----9b7-9b7~---x\-|
C|-2--------------------------------------------------x\-|
G|-2--------------------------------------------------x\-|
D|-0-----------------------------------------------------|

                                                      ^ Pick slide

My eyes resting on your soul
Your lungs gasping for breath
The syncopated truth is poisoned spears through your ribs
You have yet to learn you're the one who'll end up stranded


Guitars 1 and 2 (2:22)

D|--------------------------------------|
A|--------------------------------------|
F|--------------------------------------| 4x
C|--------------------------------------|
G|-2---2---2---2-----4---------5--------|
D|-0---0---3---0--5----5--5/6----6-5-3--|

|------|
|------|
|------|
|-2----|
|-2----|
|-0----|


    Solo (2:46)


Guitar 1


D|--------------------------------------------------|
A|--------------------------------------------------|
F|--------------------------------------------------|
C|------------0-----2----------------0------2----0--|
G|-2--2--2--2-1--2--3-----2--2--2--2-1--2-2-3--2-1--|
D|-0--0--3--0----0--------0--0--3--0----0-3----3----|

|-----------------------------------------------------------|
|-----------------------------------------------------------|
|-----------------------------------------------------------|
|------------0-----2----------------0------2----0----0------|
|-2--2--2--2-1--2--3-----2--2--2--2-1--2-2-3--2-1--2-1------|
|-0--0--3--0----0--------0--0--3--0----0-3----3----3-----3~-|


Guitar 2

D|-----------------------------------------------------------------------|
A|---------------------------15--0h13h15-12------------------------------|
F|----16\-15\-14--12~------------------------12-0h12h14-0h12h16-0h12h15~-|
C|-9/------------------14p12---------------------------------------------|
G|-----------------------------------------------------------------------|
D|-----------------------------------------------------------------------|

|-----------------------------------------------------------------------------------------------------------|
|------------16-12-12h13p12~\-13p10-12p9-11p8-10p7-9p6-8p5--------------------------------------------------|
|-12~-14~-16-----------------------------------------------9h12p9-8h11p8-7h10p7-6h9p6-5h8-4h7-3h6-2h5-1h4p0-|
|-----------------------------------------------------------------------------------------------------------|
|-----------------------------------------------------------------------------------------------------------|
|-----------------------------------------------------------------------------------------------------------|


    Pre-Chorus (2:58)

Guitar 2

D|---------------------|
A|---------------------|
F|-2--4---4-4-2--------|
C|--------------5---2\-|
G|---------------------|
D|---------------------|

Rejoin Guitar 1 after playing the end of the solo


Guitars 1 and 2

D|-----------------------------------------------------------------------------------|
A|-----------------------------------------------------------------------------------|
F|-----------------------------------------------------------------------------------|
C|-----------------------------------------------------------------------------------|
G|----------------8-----2--2--2--2-2--2--2-----------------8----------------------0--|
D|-3--7--7--7--7-----7--3--0--0--0-3--0--1--3--6--7--7--7-----7--0--0--0-6--0--1--0--|
                              .  .                               .  .  .     

|--------------------------------------------------------------------------------------|
|--------------------------------------------------------------------------------------|
|--------------------------------------------------------------------------------------|
|--------------------------------------------------------------------------------------|
|----------------8-----2--2--2--2-2--2--2-----------------8-----2--2--2--2-2--2--2--2--|
|-3--7--7--7--7-----7--3--0--0--0-3--0--1--3--6--7--7--7-----7--3--0--0--0-3--0--1--0--|
                             .  .                                     .  .  

    Chorus (3:17)

Guitars 1 and 2

D|---------------------------------------------------------|
A|---------------------------------------------------------|
F|---------------------------------------------------------|
C|---------------------------------------------------------|
G|-2----3--2---5------5--2-----2----3-2----5------5--2-----|
D|-0----1--0---6------6--3-----0----1-0----6------6--3-----|

|------------------------------------------------|
|------------------------------------------------|
|------------------------------------------------|
|------------------------------------------------|
|-2----3--2---5------5--2-----2----3--2---5------|
|-0----1--0---6------6--3-----0----1--0---6------|


Please message me before rating if you have any revisions (especially if it pertains to the solo - this is as
close as I could get it). I plan on getting the rest of this album tabbed out.
Добавлено: 17.04.2016
Вам также может быть интересно:
Другие материалы по этой песне:
  • Аккорды и текст

Страница создана 17.04.2016
http://primanota.ru/pregnant-whale-pain/my-name-chords.htm
Привет, Гость.
Предлагаем пройти революционный курс по гитаре.
Подарок от PrimaNota.Ru, забирай!