PrimaNota.ru - самый крупный в мире бесплатный архив песенных текстов, аккордов, табулатур и нот


Prefab Sprout - Ride - аккорды и текст, видео

Регистрация Запомнить меня
Войти через:  Facebook Google Twitter Vk Yandex Mail.ru

Prefab Sprout - Ride - аккорды и текст, видео

Печатать
Просмотров: 65
Авторы музыки: Paddy McAloon
Авторы текста: Paddy McAloon
Ride
Prefab Sprout
---------------------------------------------------------------------------
           Ride - Prefab Sprout
---------------------------------------------------------------------------
Tabbed by: maguri
Tuning: Standard

Prefab Sprout 
Sweet Gospel Music (1992) 
(McAloon)

From: "Let's Change the World With Music" (2009)

---------------------------------------------------------------------------

INTRO/VERSE
  D/A  C/A                      C(add9)/A
e|5-5---3---------|----------------|3---------------|----------------|
B|7-7---5---------|----------------|3---------------|----------------|
G|7-7---5---------|----------------|5---------------|----------------|
D|7-----5---------|----------------|5---------------|----------------|
A|0-----0---------|----------------|0---------------|----------------|
E|----------------|----------------|----------------|----------------|
  Bm/A                     D/A  C/A                         [D/A  C/A]
e|7---------------|--------5-5---3-|----------------|--------5-5---3-|
B|7---------------|--------7-7---5-|----------------|--------7-7---5-|
G|7---------------|--------7-7---5-|----------------|--------7-7---5-|
D|9---------------|--------7-----5-|----------------|--------7-----5-|
A|0---------------|--------0-----0-|----------------|--------0-----0-|
E|----------------|----------------|----------------|----------------|
                                                           [turnaround]

---------------------------------------------------------------------------
CHORDS/SPECIAL VOICINGS
 
D/A       x-0-4-2-3-2
C/A       x-0-2-0-1-3
C(add9)/A x-0-5-5-3-3
Bm/A      x-0-4-4-3-2

---------------------------------------------------------------------------
INTRO
| D/A C/A | C/A | C(add9)/A | % |
| Bm/A | Bm/A D/A | C/A | C/A D/A |

  D/A   C/A             C(add9)/A
I look around me, and I see
      Bm/A                      D/A        C/A
Folks leading more constructive lives than me
D/A         C/A          C(add9)/A
They don't do this for reward,
         Bm/A                     D/A      C/A
They are walking in the footsteps of their Lord
    D/A     C/A                  C(add9)/A
And for themselves, they make no claims
         Bm/A                     D/A        C/A
They may die without the world knowing their names

    D         Em    D
But they will ride, ride,
C7M                       D
Home to Jesus, heads held high,
          Em    D
They will ride, ride,
C7M                       D
Home to Jesus, heads held high,
          Em    D
They will ride, ride,
C7M  
Home to Jesus
 
D/A       C/A          C(add9)/A
Some good people, will deny
   Bm/A                           D/A       C/A
Anything that they can't see with their own eye
D/A        C/A            C(add9)/A
They don't walk, in God's light,
          Bm/A                   D/A        C/A
They just walk the way they do because it's right

    D         Em    D
And they will ride, ride,
C7M                       D
Home to Jesus, heads held high,
          Em    D
They will ride, ride,
C7M                       D
Home to Jesus, heads held high,
          Em    D
They will ride, ride,
C7M  
Home to Jesus

SOLO
| D/A C/A | C/A | C(add9)/A | % |
| Bm/A | Bm/A D/A | C/A | C/A D/A |


D/A    C/A              C(add9)/A
People hear me, who can know (who can know)
       Bm/A                           D/A    C/A
If our time on Earth's the soundcheck or the show?
D/A   C/A                      C(add9)/A
Ask a good man, and there's no doubt
           Bm/A                    D/A     C/A
He'll have too much on his mind to work it out

    D       Em    D
But he will ride, ride,
C7M                      D
Home to Jesus, head held high,
        Em    D
He will ride, ride,
C7M                      D
Home to Jesus, head held high,
        Em    D
He will ride, ride,
C7M                      D
Home to Jesus, head held high,
        Em    D
He will ride, ride,
C7M  
Home to Jesus

(fade)
Добавлено: 26.11.2013
Другие материалы по этой песне:
  • Аккорды и текст

Страница создана 15.06.2013
http://primanota.ru/prefab-sprout/ride-chords.htm
Привет, Гость.
Предлагаем пройти революционный курс по гитаре.
Подарок от PrimaNota.Ru, забирай!