PrimaNota.ru - самый крупный в мире бесплатный архив песенных текстов, аккордов, табулатур и нот


Prefab Sprout - Johnny Johnny - бас-таба, видео

Регистрация Запомнить меня
Войти через:  Facebook Google Twitter Vk Yandex Mail.ru

Prefab Sprout - Johnny Johnny - бас-таба, видео

Печатать
Просмотров: 264
Новый альбом группы 'Черный Кузнец' по культовому сериалу 'Сверхъестественное'!
Goodbye Lucille #1 (Johnny Johnny)
Prefab Sprout
Bass Tab


Intro

|---------------------------------------------|
|---------------------------------------------|
|-------------6--6-6-----3--3-3---------------|
|--4--4-4---------------------------1--1-1----| x2

Verse 1

|---------------------------------------------|
|---------------------------------------------|
|-------------6--6-6-----3--3-3---------------|
|--4--4-4---------------------------4--4-4----| x3

|---------------------------------------------|
|---------------------------------------------|
|-------------6--6-6-----3--3-3---------------|
|--4--4-4---------------------------1--1-1----| x2

|------------------------------------------------------------------------|
|------------------------------------------------------------------------|
|----------------------------------------6--6-6-----3--3-3---------------|
|-3--4---4-4---4-6---6-6---6-4---4\----------------------------4--4-4----|

Verse 2

|---------------------------------------------|
|---------------------------------------------|
|-------------6--6-6-----3--3-3---------------|
|--4--4-4---------------------------4--4-4----| x2

|-------------------------------------------------|
|-------------------------------------------------|
|-------------6--6-6-----3--3-3-------------------|
|--4--4-4---------------------------1--1-1---3----| x2

|------------------------------------------------------------------|
|------------------------------------------------------------------|
|------------------------3------------6------4---4----4-3---3-3----|
|--4---4----4-6---6-6--------3---1---------------------------------|

|---------------------------------------------------------------|
|---------------------------------------------------------------|
|-3-------------6---6-6--6-5-4---4-4---4-3---3-3---3------------|
|---3---3-3---3--------------------------------------3---3-3----|

|-------------------------------------------------------------------------|
|-------------------------------------------------------------------------|
|-----------------------------------6-6---6-6\---3-3---3-3----------------|
|-3-4---4----3h4---4----0h1---1------------------------------4-4---4-4----|

|---------------------------------------------|
|---------------------------------------------|
|-------------6--6-6-----3--3-3---------------|
|--4--4-4---------------------------1--1-1----|

Verse 3

|---------------------------------------------|
|---------------------------------------------|
|-------------6--6-6-----3--3-3---------------|
|--4--4-4---------------------------4--4-4----| x3

|-------------------------------------------------|
|-------------------------------------------------|
|-------------6--6-6-----3--3-3-------------------|
|--4--4-4---------------------------1--1-1---3----| x2

|------------------------------------------------------------------|
|------------------------------------------------------------------|
|------------------------3------------6------4---4----4-3---3-3----|
|--4---4----4-6---6-6--------3---1---------------------------------|

|---------------------------------------------------------------|
|---------------------------------------------------------------|
|-3-------------6---6-6--6-5-4---4-4---4-3---3-3---3------------|
|---3---3-3---3--------------------------------------3---3-3----|

|--------------------------------------------------------------------------------------|
|--------------------------------------------------------------------------------------|
|-----------------------------------6-6---6-6--6-5-3-3---3-3---------------------------|
|-3-4---4----3h4---4----0h1---1--------------------------------4-4---4-4--4-4-4---4-4--|

Ending

|--------------------------------------------------------------|
|--------------------------------------------------------------|
|-6-6--6-6--6-5-3-3---3-3---3----------------------------------|
|-----------------------------4-4---4-4-4---4-4-4---4-4-4---4--| x2

|---------------------------------------------------|
|---------------------------------------------------|
|-6-6--6-6--6-5-3-3---3-3-3---3---------------------|
|-------------------------------1-1---1-1-1--3--4~--|
Добавлено: 10.03.2012
Другие материалы по этой песне:
  • Аккорды и текст

Страница создана 10.03.2012
http://primanota.ru/prefab-sprout/johnny-johnny-chords.htm
Привет, Гость.
Предлагаем пройти революционный курс по гитаре.
Подарок от PrimaNota.Ru, забирай!