PrimaNota.ru - самый крупный в мире бесплатный архив песенных текстов, аккордов, табулатур и нот


Prefab Sprout - If You Dont Love Me - аккорды и текст, видео

Регистрация Запомнить меня
Войти через:  Facebook Google Twitter Vk Yandex Mail.ru

Prefab Sprout - If You Dont Love Me - аккорды и текст, видео

Печатать
Просмотров: 91
Авторы музыки: Paddy McAloon
Авторы текста: Paddy McAloon
If You Dont Love Me
Prefab Sprout
---------------------------------------------------------------------------
                If You Don't Love Me - Prefab Sprout
---------------------------------------------------------------------------
Tabbed by: maguri
Tuning: Standard
Prefab Sprout 

If You Don't Love Me (1992) 
(McAloon)

---------------------------------------------------------------------------

INTRO
                                                             D(no3rd)
  D9/F#            F7M              C                Dsus        D7 
e|----------------|0---------------|3---------------|0---------------|
B|----1---0-------|1-------0---1---|1-------0---1---|3-------3---1---|
G|2-----------2---|2---2-----------|0---2-----------|2---------------|
D|0---------------|3---------------|2---------------|0---------------|
A|----------------|----------------|3---------------|----------------|
E|2---------------|1---------------|----------------|----------------|

INTERLUDE
                                                             
  D9/F#            F7M              C                Dsus    D(no3rd)
e|----------------|0---------------|3---------------|0---------------|
B|----1---0-------|1-------0---1---|1-------0---1---|3-------3-------|
G|2-----------2---|2---2-----------|0---2-----------|2-----------2---|
D|0---------------|3---------------|2---------------|0---------------|
A|----------------|----------------|3---------------|----------------|
E|2---------------|1---------------|----------------|----------------|
  Am               G/B              C                D(no 3rd)
e|----------------|----------------|0---------------|5---------------|
B|--------0---1---|3-------0---1---|1-------0---1---|3---------------|
G|2---2-----------|0---2-----------|0---2-----------|2---------------|
D|2---------------|0---------------|2---------------|0---------------|
A|0---------------|2---------------|3---------------|----------------|
E|----------------|----------------|----------------|----------------|


---------------------------------------------------------------------------
CHORDS
           E-A-D-G-B-E
F7M        x-x-3-5-5-5
F6/9       x-x-3-2-3-3
*Em7       0-x-5-4-3-3
Am+       x-0-2-2-1-1
Am7        x-0-2-2-1-3
D9/F#      2-x-0-2-1-0
*F7M    (t)1-x-3-2-1-0
F(add9)    x-x-3-2-1-3
C/E        x-x-2-0-1-3
D7sus4     x-x-0-2-1-3
Dm7        x-x-0-2-1-1
C          x-3-2-0-1-0
C5+        x-3-2-1-1-0
C6         x-3-2-2-1-0
C7         x-3-2-3-1-0
D(no 3rd)  x-x-0-2-3-x
G/B        x-2-0-0-3-3

---------------------------------------------------------------------------
Capo 1st fret

INTRO
| D9/F# | F7M   | C | Dsus  D(no3rd) D7 |
                                    [If ...]
[D7] F(add9)            C/E   Dm7          G
If   you don't love me, oh if you    don't love me

| F7M   | F6/9 | F7M   | F6/9 |
| *Em7 | % | Am | Am+ Am7 |

F7M              F6/9
  You can tell me anything,
F7M              F6/9
  You can tell me anything,
       *Em7
I'll believe you,
Am  Am+ Am7 D9/F#
You know it  too
          D9/F#
Shame the truth with lies
       *F7M  
Say the sun won't rise
     G
Only realise

   F(add9)           C/E   D7sus4 Dm7   Em
If you don't love me oh if you    don't love me
G      C     C5+       C6                C7
I will know,    I will know, whoah whoah whoah
   F(add9)           C/E   D7sus4 Dm7   G
If you don't love me oh if you    don't love me

| F7M   | F6 | F7M   | F6 |   
        I will know
    | *Em7 | % | Am | Am+ Am7 |
I will know


F7M              F6/9
  You can ask me anything,
F7M              F6/9
  You can ask me anything,
      *Em7
I will do it,
Am  Am+ Am7 D9/F#
You know it  too
        D9/F#
Nothing I won't do
      *F7M  
If you want me to
         G
But it's also true

   F(add9)           C/E   D7sus4 Dm7   Em
If you don't love me oh if you    don't love me
G      C     C5+       C6                C7
I will know,    I will know, whoah whoah whoah
   F(add9)           C/E   D7sus4 Dm7   G
If you don't love me oh if you    don't love me

INTERLUDE
| D9/F# | % | Famj7 | % | C | % | D(no 3rd) | % |
| Am | % | G/B | % | C | % | D(no 3rd) | % |


   F(add9)           C/E   D7sus4 Dm7   Em
If you don't love me oh if you    don't love me
G      C     C5+       C6                C7
I will know,    I will know, whoah whoah whoah
   F(add9)           C/E   D7sus4 Dm7   G
If you don't love me oh if you    don't love me

| F7M   | F6 | F7M   | F6 |    C
        I will know (I will know)
Добавлено: 25.08.2013
Другие материалы по этой песне:
  • Аккорды и текст

Страница создана 25.08.2013
http://primanota.ru/prefab-sprout/if-you-dont-love-me-chords.htm
Привет, Гость.
Предлагаем пройти революционный курс по гитаре.
Подарок от PrimaNota.Ru, забирай!