PrimaNota.ru - самый крупный в мире бесплатный архив песенных текстов, аккордов, табулатур и нот


Precious Death - The Ocean - таба, видео

Регистрация Запомнить меня
Войти через:  Facebook Google Twitter Vk Yandex Mail.ru

Precious Death - The Ocean - таба, видео

Печатать
Просмотров: 64
		   Author/Artist: Precious Death
Title: The Ocean
Album: New Music For A Quiet Revolution
Transcribed by: Dan
Email: Prhaps2day@aol.com

Palm mute don't palm mute.  Experiment to get the right sound.

And remember. . . two measures of clicks before you start.

----------|--------------------------------|--------------------------------|-
----------|--------------------------------|--------------------------------|-
----------|7-7-7-xxxx3-3-xxxx4-4-xxxx5-5-xx|xx8-8-xxxx8-8-xxxx8-8-xxxx8-8-8-|-
----------|7-7-7-xxxx3-3-xxxx4-4-xxxx5-5-xx|xx8-8-xxxx8-8-xxxx8-8-xxxx8-8-8-|-
-\\\\\\\\\|5-5-5-xxxx1-1-xxxx2-2-xxxx3-3-xx|xx6-6-xxxx6-6-xxxx6-6-xxxx6-6-6-|-
-\\\\\\\\\|--------------------------------|--------------------------------|-
 pick scrape          chorus       (3X)                                       

---------------|-------------------|---------|-------------------|-------|----
---------------|-------------------|---------|-------------------|-------|----
-2-2----2-2----|2-2----2-2-2--3-3-3|---------|2-2----2-2-2--3-3-3|-------|----
-2-2----2-2----|2-2----2-2-2--3-3-3|---------|2-2----2-2-2--3-3-3|-------|----
-0-0----0-0----|0-0----0-0-0--1-1-1|---------|0-0----0-0-0--1-1-1|-------|----
-----234----234|----234------------|---------|-0-0234-0-0--------|-------|----
  rhythm (3X)     (4th time)       rhythm (3X)                     chorus     

----------|-------------------|--------|---------------|-------------------|--
----------|-------------------|--------|---------------|-------------------|--
----------|2-2----2-2-2--3-3-3|--------|2-2-----2-2----|2-2----2-2-2--3-3-3|--
----------|2-2----2-2-2--3-3-3|--------|2-2-----2-2----|2-2----2-2-2--3-3-3|--
----------|0-0----0-0-0--1-1-1|--------|0-0-----0-0----|0-0----0-0-0--1-1-1|--
----------|----234------------|--------|---0234--0-0234|-0-0234-0-0--------|--
 rhythm(3X)                   rhythm(2X)                                      

-------|---|---|----|---------------|---------------|-----------------------|-
-------|---|---|----|---------------|---------------|-----------------------|-
-------|7--|8--|-7--|8-8-8-8-8-8-8-8|8-8-8-8-8-8-8-8|10-10-10-10-10-10-10-10|-
-------|7--|8--|-7--|8-8-8-8-8-8-8-8|8-8-8-8-8-8-8-8|10-10-10-10-10-10-10-10|-
-------|5--|6--|-5--|6-6-6-6-6-6-6-6|6-6-6-6-6-6-6-6|-8--8--8--8--8--8--8--8|-
-------|---|---|----|---------------|---------------|-----------------------|-
 chorus   segway part deal>                                                   

-----------------------|--------------------|--------------------|------------
-----------------------|--------------------|--------------------|------------
-11-11-11-11-11-11-11--|--------------------|--------------------|------------
-11-11-11-11-11-11-11--|--------------------|---------------3-3-3|-2-2--------
--9--9--9--9--9--9--9--|0-0-----0-0---------|0-0-----0-0-0--1-1-1|-0-0--------
-----------------------|----234-----234-----|----234-------------|-----234----
                            xxx     xxx (3X)     xxx x x x  x x x  x x xxx    

--------|-----------------|--------------------|-------|----------------------
--------|-----------------|--------------------|-------|----------------------
--------|2-2----2-2-------|-2-2----2-2-2--3-3-3|-------|----------------------
-2-2----|2-2----2-2-------|-2-2----2-2-2--3-3-3|-------|----------------------
-0-0----|0-0----0-0-------|-0-0----0-0-0--1-1-1|-------|----------------------
-----234|----234----234---|--0-0234-0-0--------|-------|----------------------
     xxx     xxx    xxx(2X)                    chorus   segway part deal      

     
Добавлено: 05.12.2013
Другие материалы по этой песне:
  • Аккорды и текст

Страница создана 05.12.2013
http://primanota.ru/precious-death/the-ocean-chords.htm
Привет, Гость.
Предлагаем пройти революционный курс по гитаре.
Подарок от PrimaNota.Ru, забирай!