PrimaNota.ru - самый крупный в мире бесплатный архив песенных текстов, аккордов, табулатур и нот


Precious Death - Psalm - таба, видео

Регистрация Запомнить меня
Войти через:  Facebook Google Twitter Vk Yandex Mail.ru

Precious Death - Psalm - таба, видео

Печатать
Просмотров: 76
Уроки эстрадного вокала в Санкт-Петербурге
		   Author/Artist: Precious Death
Title: Psalm
Album: New Music For A Quiet Revolution
Transcribed by: Dan
Email: Prhaps2day@aol.com
What a great tune.  Love the bouncy chorus.
Love the "woo ooh" leading into the last chorus.
One of the best PD songs. (though so many kick backside, 
it's hard to say which is best.)
Tune down 1/2 step
--------------------------------|-------------------------------|-------------
--------------------------------|-------------------------------|-------------
-------------2-----2-----2------|1-----------1------------------|-------------
-2-----2-------2-----2-----2----|--2---2-------2---2-----2-----2|-------------
---2-----2---------------------2|--------2-----------2-----2----|-------------
-----0-----0-----0-----0-----0--|----0-----0-----0-----0-----0--|-------------
   (INTRO)  pt 1                       pt 2                                   
--------------------------------|------------------------------|---------|----
--------------------------------|------------------------------|---------|----
-0-----0------------------------|------------------------------|---------|----
---0-----0---4-----4-----4------|-2-----2p0---2-----2-0---2----|---------|----
-----2-----2---5-----5-----5---5|---2-----------2-----------2--|---------|----
-----------------5-----5-----5--|-----0-----0-----0-----0-----0|---------|----
          pt 3                                 pt 4              pts 1 +2     
---------------------------------|------------------|-------------------------
---------------------------------|------------------|-------------------------
-0-------------0-----------------|------------------|-------------------------
---4---0h4-4h5-----5-4-0-4p0---0-|2-----2-0---2-----|--6-----6-----7-----7----
-----5-----------5---------------|--2---------------|-------------------------
-----------------------------0---|----0-----0-------|0-----0-----0-----0------
                                                         rhythm               
----------------------------------------|-------------------------------------
----------------------------------------|-------------------------------------
----------------------------------------|-------------------------------------
-7---7-----9-----9-----7-----7---7---7--|--6----6----7----7---7---7-----9-----
----------------------------------------|-------------------------------------
---0---0-0-----0-----0-----0-------0---0|0----0----0----0-------0---0-0-------
                              (3X)                       4th time             
----------------|------------------------------------------|------------------
----------------|------------------------------------------|------------------
----------------|7--7-----7--9--11--9--7----6--6-----5-5---|--9----9-----13---
---9----7-------|7--7-----7--9--11--9--7----6--6-----5-5---|--9----9-----13---
----------------|5--5-----5--7---9--7--5----4--4---2-3-3---|--7----7-----11---
-0----0---------|-------7-----------------0----------------|0----0-----0------
                               pre-chorus                      chorus         
----------------------------------------|-------------------------------------
----------------------------------------|-------------------------------------
---13-----13-----6----6----5----5--5/7--|--9----9----13----13-----13-----6----
---13-----13-----6----6----5----5--5/7--|--9----9----13----13-----13-----6----
---11-----11-----4----4----3----3--3/5--|--7----7----11----11-----11-----4----
-0-----0-------0----0----0----0---------|0----0----0-----0-----0-------0------
                                                                              
------------------------------------|-----|----------|------------|-------|---
------------------------------------|-----|----------|------------|-------|---
---6----6-5-5-5/7-7-7/9-9-9/12-12-12|-----|----------|------------|-------|---
---6----6-5-5-5/7-7-7/9-9-9/12-12-12|-----|----------|------------|-------|---
---4----4-3-3-3/5-5-5/7-7-7/10-10-10|-----|----------|------------|-------|---
-0----0-----------------------------|-----|----------|------------|-------|---
                                     rhythm prechorus  chorus (2X)  intro     
------------|-----------|-----------------|-----------------|-----------------
------------|-----------|-----------------|-----------------|-----------------
-9-9-9-9-9-9|9-9-9-9-9-9|11-11-11-11-11-11|11-11-11-11-11-11|13-13-13-13-13---
-9-9-9-9-9-9|9-9-9-9-9-9|11-11-11-11-11-11|11-11-11-11-11-11|13-13-13-13-13---
-7-7-7-7-7-7|7-7-7-7-7-7|-9--9--9--9--9--9|-9--9--9--9--9--9|11-11-11-11-11---
------------|-----------|-----------------|-----------------|-----------------
                                                                              
---|-----------------|-----------------|-----------------|-----------|--------
---|-----------------|-----------------|-----------------|-----------|--------
-13|13-13-13-13-13-13|13-13-13-13-13-13|13-13-13-13-13-13|9-9-9-9-9-9|9-9-9---
-13|13-13-13-13-13-13|13-13-13-13-13-13|13-13-13-13-13-13|9-9-9-9-9-9|9-9-9---
-11|11-11-11-11-11-11|11-11-11-11-11-11|11-11-11-11-11-11|7-7-7-7-7-7|7-7-7---
---|-----------------|-----------------|-----------------|-----------|--------
                                                                              
------|-----------|-----------|-----------|-----------|-----------|-----------
------|-----------|-----------|-----------|-----------|-----------|-----------
-9-9-9|7-7-7-7-7-7|7-7-7-7-7-7|9-9-9-9-9-9|9-9-9-9-9-9|9-9-9-9-9-9|9-9-9-9-9--
-9-9-9|7-7-7-7-7-7|7-7-7-7-7-7|9-9-9-9-9-9|9-9-9-9-9-9|9-9-9-9-9-9|9-9-9-9-9--
-7-7-7|5-5-5-5-5-5|5-5-5-5-5-5|7-7-7-7-7-7|7-7-7-7-7-7|7-7-7-7-7-7|7-7-7-7-7--
------|-----------|-----------|-----------|-----------|-----------|-----------
                                                                              
--|-----------|-----------|-----------------|-----------------|---------------
--|-----------|-----------|-----------------|-----------------|---------------
-9|9-9-9-9-9-9|9-9-9-9-9-9|11-11-11-11-11-11|14-14-14-14-14-14|13-13-13-13----
-9|9-9-9-9-9-9|9-9-9-9-9-9|11-11-11-11-11-11|14-14-14-14-14-14|13-13-13-13----
-7|7-7-7-7-7-7|7-7-7-7-7-7|-9--9--9--9--9--9|12-12-12-12-12-12|11-11-11-11----
--|-----------|-----------|-----------------|-----------------|---------------
                                                                              
------|-----------------|-----------------|-----------------|-----------|-----
------|-----------------|-----------------|-----------------|-----------|-----
-13-13|13-13-13-13-13-13|13-13-13-13-13-13|13-13-13-13-13-13|9-9-9-9-9-9|9-9--
-13-13|13-13-13-13-13-13|13-13-13-13-13-13|13-13-13-13-13-13|9-9-9-9-9-9|9-9--
-11-11|11-11-11-11-11-11|11-11-11-11-11-11|11-11-11-11-11-11|7-7-7-7-7-7|7-7--
------|-----------------|-----------------|-----------------|-----------|-----
                                                                              
--------|-----------|-----------|-----------|-----------|--|------|-----------
--------|-----------|-----------|-----------|-----------|--|------|-----------
-9-9-9-9|7-7-7-7-7-7|7-7-7-7-7-7|9-9-9-9-9-9|9-9-9-9-9-9|7-|------|-----------
-9-9-9-9|7-7-7-7-7-7|7-7-7-7-7-7|9-9-9-9-9-9|9-9-9-9-9-9|7-|------|-----------
-7-7-7-7|5-5-5-5-5-5|5-5-5-5-5-5|7-7-7-7-7-7|7-7-7-7-7-7|5-|------|-----------
--------|-----------|-----------|-----------|-----------|--|------|-----------
                                                           rhythm prechorus   
------------|----------------|------------------------------------------------
------------|----------------|------------------------------------------------
------------|9---------------|------------------------------------------------
------------|9---------------|------------------------------------------------
------------|7---------------|------------------------------------------------
------------|0---------------|------------------------------------------------
 chorus (4X)                                                                  
     
Добавлено: 29.06.2013
Вам также может быть интересно:
Другие материалы по этой песне:
  • Аккорды и текст

Страница создана 29.06.2013
http://primanota.ru/precious-death/psalm-chords.htm
Привет, Гость.
Предлагаем пройти революционный курс по гитаре.
Подарок от PrimaNota.Ru, забирай!