PrimaNota.ru - самый крупный в мире бесплатный архив песенных текстов, аккордов, табулатур и нот


Precious Death - I Was Free - таба, видео

Регистрация Запомнить меня
Войти через:  Facebook Google Twitter Vk Yandex Mail.ru

Precious Death - I Was Free - таба, видео

Печатать
Просмотров: 79
		   Author/Artist: Precious Death
Title: I Was Free
Album: New Music For A Quiet Revolution
Transcribed by: Dan . . . Shhh.  Don't tell anyone.
Email: Prhaps2day@aol.com

Sex: male
Marital status: single
Computers used:  IBM Aptiva M53
Personal Quote:  Wait, this isn't AOL . . . 

------------|--------------------------------------------|--------------------
------------|--------------------------------------------|--------------------
------------|--------------------------------------------|--------------------
-2---3---4--|5---5--8---8-8---8-8-2---2-2--3--3-3--4--4-4|-5---5-5-8---8-8-8--
-2---3---4--|5---5--8---8-8---8-8-2---2-2--3--3-3--4--4-4|-5---5-5-8---8-8-8--
-0---1---2--|3---3--6---6-6---6-6-0---0-0--1--1-1--2--2-2|-3---3-3-6---6-6-6--
                                                          (rhythm 1)          

----------------------------|-------------------------------------------------
----------------------------|-------------------------------------------------
----------------------------|-------------------------------------------------
-8-8-2---2-2--3--3-3--4--4-4|-------------------------------------------------
-8-8-2---2-2--3--3-3--4--4-4|-------------------------------------------------
-6-6-0---0-0--1--1-1--2--2-2|-3--3-3-3-6---6-6--6-6-6-6-0---0-0---1--1-1--2---
                              (rhythm 2)                                      

------|--|--------------------------|-0--0--0--0-0---0-0-0-0-0-0-0|-----------
------|--|--------------------------|-1--1--1--1-1---1-1-1-1-1-1-1|-----------
------|--|--------------------------|-0--0--0--0-0---0-0-0-0-0-0-0|-----------
------|--|-5---5-5-5-3---3-3--3--3-3|-2--2--2--2-2---2-2-2-2-2-2-2|-----------
------|--|-5---5-5-5-3---3-3--3--3-3|-3--3--3--3-3---3-3-3-3-3-3-3|-----------
-2-2-2|--|-3---3-3-3-1---1-1--1--1-1|-----------------------------|-----------
                        (3X)    *chorus*                                      

-------------|------------|----------|--------------------|-------------|-----
-------------|------------|----------|--------------------|-------------|-----
-------------|------------|----------|--------------------|-------------|-----
-------------|------------|----------|--------------------|-------------|-----
-------------|------------|----------|--------------------|-------------|-----
-------------|------------|----------|-3--/-6---\-0--1--2-|-3--/6-------|-----
 rhythm 2(4X) rhythm 1(4X) chorux(4X)            (3X)                         

     
Добавлено: 09.07.2013
Другие материалы по этой песне:
  • Аккорды и текст

Страница создана 09.07.2013
http://primanota.ru/precious-death/i-was-free-chords.htm
Привет, Гость.
Предлагаем пройти революционный курс по гитаре.
Подарок от PrimaNota.Ru, забирай!