PrimaNota.ru - самый крупный в мире бесплатный архив песенных текстов, аккордов, табулатур и нот


Precious Death - All We Have Is Now - таба, видео

Регистрация Запомнить меня
Войти через:  Facebook Google Twitter Vk Yandex Mail.ru

Precious Death - All We Have Is Now - таба, видео

Печатать
Просмотров: 79
		   Author/Artist: Precious Death
Title: All We Have Is Now
Album: New Music For A Quiet Revolution
Transcribed by: Dan (don't think I should divulge anymore right now.  First date
Email: Prhaps2day@aol.com

 and all.)

I don't know how well this transcription will turn out.  First attempt.  
If you like it, we'll all have to get together when we leave these 
bodies.  You, me, the band . . . we'll all kick back and have 
a few laughs.  

Drop D tuning

-------------------------------------|------------------------------------|---
-------------------------------------|------------------------------------|---
-------------------------------------|------------------------------------|---
-------------------------------------|------------------------------------|---
-----------------------------------5-|------------------------------------|---
-0-----0-3-5---6-0-----0-3-5---5h6---|0-----0-3-5---6-0-----0-3-----------|---
 base intro               (3X)                                                

---------------------------|------------------------------|-------------------
---------------------------|------------------------------|-------------------
---------------------------|------------------------------|-------------------
-0-------1-1-0----0-3-0-6--|-0----0-1-1-0---0-3-3-4-4-5-5-|-0------0-1-1-0----
-0-------1-1-0----0-3-0-6--|-0----0-1-1-0---0-3-3-4-4-5-5-|-0------0-1-1-0----
-0-------1-1-0----0-3-0-6--|-0----0-1-1-0---0-3-3-4-4-5-5-|-0------0-1-1-0----
 guitar  x x      x               x x x     x x x x x x x rhythm 1 x x x      

----------|------------------------------|--------------|---------------------
----------|------------------------------|--------------|---------------------
----------|------------------------------|--------------|---------------------
-0-3-0-6--|-0---0-1-1-0----0-3-3-4-4-5-5-|-2-2--/-5-5---|--2-2--2---2-2-1-----
-0-3-0-6--|-0---0-1-1-0----0-3-3-4-4-5-5-|-2-2--/-5-5---|--2-2--2---2-2-1-----
-0-3-0-6--|-0---0-1-1-0----0-3-3-4-4-5-5-|-2-2--/-5-5---|--2-2--2---2-2-1-----
 x              x x x      x x x x x x x    chorus>(3X)    x x  x   x x x     

--------------|-------------|-----------|-------------------------------------
--------------|-------------|-----------|-------------------------------------
--------------|-------------|-----------|-------------------------------------
--1---1-1--1--|-------------|-----------|-------------------------------------
--1---1-1--1--|-------------|-----------|-------------------------------------
--1---1-1--1--|-------------|-----------|-------------------------------------
  x   x x  x     rhythms and choruses, etc. etc. etc.                         

------|-----------------------------------------|-----------------------------
------|-----------------------------------------|-----------------------------
------|-----------------------------------------|-----------------------------
------|-3-3--3---3-3-2--2-2---0--2--3--2---0-0--|-3-3--3--3-3-2--2-2----------
------|-3-3--3---3-3-2--2-2---0--2--3--2---0-0--|-3-3--3--3-3-2--2-2----------
------|-3-3--3---3-3-2--2-2---0--2--3--2---0-0--|-3-3--3--3-3-2--2-2----------
        x x  x   x x ST sounding jam part (7X)    x x  x  x x                 

----------------------------|----------|-------|------------------------------
----------------------------|----------|-------|------------------------------
----------------------------|----------|-------|------------------------------
-1-1--1--1--1--1--1-11111111|----------|-------|------------------------------
-1-1--1--1--1--1--1-11111111|----------|-------|------------------------------
-1-1--1--1--1--1--1-11111111|----------|-------|------------------------------
 x x  x  x  x  x  x xxxxxxxx   rhythm 1  chorus  rhythm 1 (3.5X)              

     
Добавлено: 19.07.2013
Другие материалы по этой песне:
  • Аккорды и текст

Страница создана 19.07.2013
http://primanota.ru/precious-death/all-we-have-is-now-chords.htm
Привет, Гость.
Предлагаем пройти революционный курс по гитаре.
Подарок от PrimaNota.Ru, забирай!