PrimaNota.ru - самый крупный в мире бесплатный архив песенных текстов, аккордов, табулатур и нот


Pre Shrunk - Wooku - аккорды и текст, бас-таба, видео

Регистрация Запомнить меня
Войти через:  Facebook Google Twitter Vk Yandex Mail.ru

Pre Shrunk - Wooku - аккорды и текст, бас-таба, видео

Печатать
Просмотров: 126
Wooku
Pre Shrunk
Song: Wooku
Band: Pre_Shrunk
EP: Sub Chakra
Tabbed by Matt gss@live.com.au
http://creation.preshrunk.net/

****** Dave's parts ******

He has contstant distortion on.

Hold first eight bars

Verse:
  p.m.__________________________________
G|--------------10-10-10-----------------13-13-13-13-----|
D| -12-12-12-12-----------11-11-11-11-11-----------------|
A| ------------------------------------------------------|
E|-------------------------------------------------------|

Chorus:                                                    x3
G|---------x-x---------------------------------------------||
D| -0-3----x-x-0-0-3-------------*||
A| ------4-x-x---------4----------------------------------*||
E|---------x-x---------------------------------------------||

G|---------x-x--------------------------------------------|
D| -0-3----x-x-0-0-3------------------------0-------------|
A| ------4-x-x---------4-4----4-4----4-4------------------|
E|---------x-x--------------------------------------------|

Solo
G|------19-----19-------------------------------|
D| -19-----19-----19-19-19/20-20- 20^22-19/15---|
A| ---------------------------------------------|
E|----------------------------------------------|

G|-------19-----19----------------------------|
D| 19-19-----19-----19-19-19/20-20- 20^22-19--|
A| -------------------------------------------|
E|--------------------------------------------|

G|--------19-----19------------------------------------------------|
D| 19-19-----19-----19-19-19/20-20- 20^22-19/15/12-14-14^15-14/12--|
A| ----------------------------------------------------------------|
E|-----------------------------------------------------------------|

After that, there's so experimentation from Dave's behalf....pick 
behind nut on this first bar...i know, wierd huh but it sounds right, 
as long as there's lotsa distortions...there is a song where he does 
it, so it might be this one

G|--------------------------------|
D|-X----X----XX----XX----XX----XX-|
A|--------------------------------|
E|--------------------------------|

Then this, and then back to the chorus:
                           x8
||-------------------------||
||*-X-X-X-X-18-X-X-X-X-18-*||
||*-----------------------*||
||-------------------------||
By the way, this bit is normal muting, not behind the nut. It's 
played x8 the first time around, x4 the second.

That's it, I hope its pretty right. If not, email me.

****** Davage's parts ******

Hold first four bars

Verse...with octave player?
G|----------------------------------|
D|--0-0-0-0-3-3-3-3---------6-6-6-6-|
A|------------------4-4-4-4---------|
E|----------------------------------|

Chorus:                  let ring while harmonics go       x3
G|---------x-x---------------------------------------------||
D| -0-3----x-x-0-0-3-----0--------------------------------*||
A| ------4-x-x---------4----------------------------------*||
E|---------x-x---------------------------------------------||

G|---------x-x--------------------------------------------|
D| -0-3----x-x-0-0-3------------------------0-------------|
A| ------4-x-x---------4-4----4-4----4-4------------------|
E|---------x-x--------------------------------------------|

When Dave plays the solo, Davage plays something like this. This 
is probably wrong thou!
G|-------------------------|
D|-10h12-12-12-12-12-12-12-|
A| ------------------------|
E|-------------------------| 
Just repeat this while Dave plays tha solo

In the second verse, this is played after the first bit:
G|----------5-5-5-5-----------------|
D| -7-7-7-7---------6-6-6-6-6-6-6-6-|
A| ---------------------------------|
E|----------------------------------|

Then back to the first bit.

Добавлено: 09.11.2013
Другие материалы по этой песне:
  • Аккорды и текст

Страница создана 08.07.2012
http://primanota.ru/pre-shrunk/wooku-chords.htm
Привет, Гость.
Предлагаем пройти революционный курс по гитаре.
Подарок от PrimaNota.Ru, забирай!