PrimaNota.ru - самый крупный в мире бесплатный архив песенных текстов, аккордов, табулатур и нот


Pre Shrunk - Soundpimp - аккорды и текст, бас-таба, видео

Регистрация Запомнить меня
Войти через:  Facebook Google Twitter Vk Yandex Mail.ru

Pre Shrunk - Soundpimp - аккорды и текст, бас-таба, видео

Печатать
Просмотров: 163
Soundpimp
Pre Shrunk
Song: Soundpimp
Band: Pre_Shrunk
EP: Triple A Side
Tabbed by Manda preshrunk@email.com
http://creation.preshrunk.net/


****** Dave's part ******


G| --------8--------|
D| ---------8-----------|
A| ---------------------|
E| ---------------------|

This gets played times three....
G| --------------------------------|
D| ---------------------------1-1--|
A| -3----1-3---3---1-3---3---------|
E| ----3---------3---------3-------|

Then is followed by...
G| ------------------------------------------------------------|
D| ------1-1-------1-1-----------------------------------------|
A|--3--------3---------3---------------------------------------|
E| ----3---------3---------3-something something something.....|

G| --------------------------------|
D| ---5-5-4-3----5-5-4-3-----------|
A| -3-----------3------------6-3---|
E| --------------------------------|

And every now and the chuck in this instead...
G| ------------3-------------------|
D| ----5-5-4-----5-5-4-3-----------|
A| -3-----------------------6-3----|
E| --------------------------------|

****** Davage's part ******

Verse:
G| ----------------|
D| -------3-3--1---|
A| --3-------------|
E| ----------------|

G| ----------------|
D| ----------------|
A| --3-------------|
E| -------3-3--1---|

G| ----------------|
D| -------3-3--1---|
A| --3-------------|
E| ----------------|

G| ----------------|
D| ----------------|
A| --3-------------|note: sometimes the -1- is left out
E| -------3-3--1---|

Chorus:                             x3
G| --5---3-5----5---3-5----5---8-8--|
D| ----5----------5----------5------|
A| ---------------------------------|
E| ---------------------------------|

G| --5---6/8----5---6/8----5----------|
D| ----5----------5----------5--------|
A| ----------------------------4-3-1--|
E| -----------------------------------|

baby love i me you yeah rock bit..
G| ---------------------------------|
D| -3-3-3-3-------------------------|
A| ---------1-1-1-1-3-3-3-3---------|
E| -------------------------3-3-3-3-|

target demographic bit(not sure?):
G| --15-17--------------------------|
D| ----------15-17------------------|
A| -----------------13-15b----------|
E| ---------------------------------|

verse, chorus

there is some pic scraping for a while then Davage joins Dave with:
G| --------------------------------
D| ---5-5-4-3----5-5-4-3-----------
A| -3-----------3------------6-3---
E| --------------------------------
Добавлено: 04.12.2013
Другие материалы по этой песне:
  • Аккорды и текст

Страница создана 19.05.2012
http://primanota.ru/pre-shrunk/soundpimp-chords.htm
Привет, Гость.
Предлагаем пройти революционный курс по гитаре.
Подарок от PrimaNota.Ru, забирай!