PrimaNota.ru - самый крупный в мире бесплатный архив песенных текстов, аккордов, табулатур и нот


Prayer Chain - Waterdogs - таба, видео

Регистрация Запомнить меня
Войти через:  Facebook Google Twitter Vk Yandex Mail.ru

Prayer Chain - Waterdogs - таба, видео

Печатать
Просмотров: 62
		   Waterdogs
by Prayer Chain/Campuzano
copyright 1994 Burning Bus Music (BMI)
Eclipsoes@aol.com

Opening Tab/Verse Tab:
"            ...turning the crank...
|--5----9-9-9-------------5--10-10-10--------------------------
|-5------8-8-------------5------8--8---------------------------
|--------------------------------------------------------------
|--------------------------------------------------------------
|--------------------------------------------------------------
|--------------------------------------------------------------

Tab 2
|----5-3-------------5-3---------------------------------------
|-4h5----4h5-4h5-4h5-----ect.----------------------------------
|--------------------------------------------------------------
|--------------------------------------------------------------
|--------------------------------------------------------------
|--------------------------------------------------------------

A                                
All the pressure
of the Huron lake
all the waterdogs
(verse tab)    
turnin' the crank
pulling me under

C             D    
  ever did I feel the need
      A      G
for something more
C             C        
  ever did I feel the need
   A
to know 

A  A  C   D  with Tab 2 repeated

A
All the fissure
of Payne's Bay
all the sounds
of nowadays  
(tab 1)             
turning into a twister
C             D 
  Ever did I feel the need for
A      G      C
 something pure
              D             B
ever did I feel the need to know
there is something more 
there is something more

Interlude/Solo A:
|-5----3--0-----------------------------0h3--------------------
|----4-----------2h3-2h3-2h3-2h3-2-0--2------------------------
|-----------------------------------2--------------------------
|--------------------------------------------------------------
|--------------------------------------------------------------
|--------------------------------------------------------------

|3h5-3h5-3h5/7--7/9v------12v----------------------------------
|--------------------------------------------------------------
|--------------------------------------------------------------
|--------------------------------------------------------------
|--------------------------------------------------------------
|--------------------------------------------------------------

A (Hammer on the A on the 6 string 0h5 throughout here)
All the angels of hopelessness
all the angels of lovingkindness
                  B
all rise from the sod
ever did I need to see
the face of God
C             D
  ever did I feel the need
    A        G
for...something more
C              D
  ever did I feel the need for...
C              D      
  ever did I feel the need for...
C              D
  ever did I feel the need for
A           G             C      D       A
the face of something pure

Closing with Tab 2

Chords:
A:		577600
C:		335500
D:		557700
G:		355400
B:		224400

Listen to the CD for proper rhythm.  I'm pretty sure this is correct, but...
     
Добавлено: 09.09.2013
Другие материалы по этой песне:
  • Аккорды и текст

Страница создана 09.09.2013
http://primanota.ru/prayer-chain/waterdogs-chords.htm
Привет, Гость.
Предлагаем пройти революционный курс по гитаре.
Подарок от PrimaNota.Ru, забирай!