PrimaNota.ru - самый крупный в мире бесплатный архив песенных текстов, аккордов, табулатур и нот


Prayer Chain - Shiver - таба, бас-таба, видео

Регистрация Запомнить меня
Войти через:  Facebook Google Twitter Vk Yandex Mail.ru

Prayer Chain - Shiver - таба, бас-таба, видео

Печатать
Просмотров: 110
		   Shiver
by Prayer Chain/Taber
copyright 1994 Burning Bus Music (BMI)
Eclipsoes@aol.com

Because there seems to an E and Em played throughout, I just use the
"unbiased" E chord...779900. 

CAPO THIRD fret...everything relative to capo
Main Riff  E          F
|--------------------------------------------------------------
|0-0-0-0--0-0-0-0---0-0-0-0-0-0--------------------------------
|x-x-x-x--x-x-x-x---x-x-x-x-x-x-------------------------------- x6
|7/9-9-9--9/4-4-4---4/5-------5/7------------------------------
|--------------------------------------------------------------
|--------------------------------------------------------------

    E           
In my mind
           F                      
I go back to that place again
       E             
In my mind
         F          
I hate myself again
        E       
Am I a man
       F        
who is that disturbing
       E      
I can't be
               
it can't be
          F         
But I remember it all
    E      F         E     F                             
Not again        Not Again

     E         
Long ago
          F               
Sin pumped through my veins
  E          
Long ago
      F                  
the blood washed it away
         E  (simple riff
still today
       F                       
That night just makes me shiver
        E           
I hang my head
                 
I shake myself
    F                 
am I that man forever?
     E  F         E  F         
Not Again    Not Again


 A5*                     
Jesus come and purify me
                            
I just need to live without it
                            
Jesus come and purify me again

Solo Chords:  E    F     E      F      E       F       A     G    

Solo
|--------------------------------------------------------------
|-----5--3----------------------------2-3p2h3p2----5----8----12
|----------4/2---2/4h5p4--2-2/1---0-2--------------------------
|--------------------------------------------------------------
|--------------------------------------------------------------
|--------------------------------------------------------------


Post solo/Final Verse Riff
"Evil's in my heart...vision makes it so hard
|--------------------------------------------------------------
|--------------------------------------------------------------
|--------------------------------------------------------------
|-0h2-2-2-2------------0h2-2-2-2-2-----------------------------
|-----------2-2-2-2----------------2-2-2-2---------------------
|--------------------------------------------------------------

the devil....no it's me...it's me it's me 
|--------------------------------------------------------------
|--------------------------------------------------------------
|--------------------------------------------------------------
|-0h2-2-2-2------------0h2-2-2-2-2-----------------------------
|-----------2-2-2-2----------------2-2-2-2---------------------
|--------------------------------------------------------------
E        F
 it's me

E   F      E  F         E  F    
      Not again    Not Again  
E      A           E     A  ect.  end on E
Aaeyeahahhhhh....Aaeyeyaaah....

Chords:
E:  779900
F:  133211
A:  002220
G:  320003
A5: 002200

*A5  during that sequence, the D (002230) is hammered on and off throughout, just play with it.

If anyone can fix any mistakes...I want to play this song right, too.


     
Добавлено: 26.09.2013
Другие материалы по этой песне:
  • Аккорды и текст

Страница создана 14.05.2012
http://primanota.ru/prayer-chain/shiver-chords.htm
Привет, Гость.
Предлагаем пройти революционный курс по гитаре.
Подарок от PrimaNota.Ru, забирай!