PrimaNota.ru - самый крупный в мире бесплатный архив песенных текстов, аккордов, табулатур и нот


Prayer Chain - Like I Was - таба, видео

Регистрация Запомнить меня
Войти через:  Facebook Google Twitter Vk Yandex Mail.ru

Prayer Chain - Like I Was - таба, видео

Печатать
Просмотров: 106
Уроки эстрадного вокала в Санкт-Петербурге
This is only the intro, because I haven't bothered
to figure out the rest of the song and the intro's the
best part of the song anyway.  If you want me to tab 
out the rest, e-mail me and I may do it.

Riff A:
e--------------------------------------------------------------------
B--------------------------------------------------------------------
G--9-9--12--x-9-9-9--7-7-7-7--9-9--12--x-9-9-9--16-16-16-16----------
D--x-x--xx--x-x-x-x--x-x-x-x--x-x--xx--x-x-x-x--xx-xx-xx-xx----------
A--7-7--10--x-7-7-7--5-5-5-5--7-7--10--x-7-7-7--14-14-14-14----------
E--------------------------------------------------------------------

  Riff B:              Riff C:                Riff D:
e|-0-0-0-0-0-0-0-0-0-|-0-0-0-0-0-0-0--0--0--|--3h4p3---------------|-
B|-5-5-5\3-3-3-0-0-0-|-5-5-5/8-8-8/10-10-10-|--------5-3-----------|-
G|-------------------|----------------------|----------4-4/5-4-3-4-|-
D|-------------------|----------------------|----------------------|-
A|-------------------|----------------------|----------------------|-
E|-------------------|----------------------|----------------------|-

  Riff E:
e-0-0-0-0-0-0-0--0--0--0--0--0--0--0--0--0---------------------------
B-5-5-5/8-8-8/10-10-10/12-12-12-13-13-13-12---15-12-15/17------------
G--------------------------------------------------------------------
D--------------------------------------------------------------------
A--------------------------------------------------------------------
E--------------------------------------------------------------------

Riff A 4x (use distortion and a wah effect)
Riff B (use distortion only for the rest)
Riff C 
Riff B
Riff D
Riff B
Riff E

     
Добавлено: 29.09.2013
Вам также может быть интересно:
Другие материалы по этой песне:
  • Аккорды и текст

Страница создана 29.09.2013
http://primanota.ru/prayer-chain/like-i-was-chords.htm
Привет, Гость.
Предлагаем пройти революционный курс по гитаре.
Подарок от PrimaNota.Ru, забирай!