PrimaNota.ru - самый крупный в мире бесплатный архив песенных текстов, аккордов, табулатур и нот


Prana - Cruz De Plastico E Fita Cola - таба, видео

Регистрация Запомнить меня
Войти через:  Facebook Google Twitter Vk Yandex Mail.ru

Prana - Cruz De Plastico E Fita Cola - таба, видео

Печатать
Просмотров: 78
TÍTULO   Cruz de Plástico e Fita Cola
ARTISTA  Prana
ÁLBUM    Trapo Trapézio (2011)
SITE     http://www.prana.com.pt/
         http://www.facebook.com/pranabanda/

RIFF
     Bm               Bm           Em      F#7
E----------------|-----------|---------|---------|
B--7-5---5-------|-----6-7-8-|-7-5-----|---------|
G------7---7-6-4-|-6-7-------|-----7-6-|---------|
D----------------|-----------|---------|---------|
A----------------|-----------|---------|---------|
E----------------|-----------|---------|---------|

     Bm               Bm           Em      F#7
E----------------|-----------|---------|---------|
B--7-5---5-------|-----------|------5--|---------|
G------7---7-6-4-|-------777-|-7-7-----|-6-----4-|
D----------------|-4---------|---------|---------|
A----------------|-----------|---------|---------|
E----------------|-----------|---------|---------|

ESTROFE
=======ACOMPANHAR COM (em staccato)===========
     Bm         Bm       Em         F#7      |
E----------|---------|---3---3-|---------|   |
B----3---3-|---3---3-|-5-------|---5---5-|   |
G--4-------|-4-------|-----4---|-6-------|   |
D------4---|-----4---|---------|-----8---|   |
A----------|---------|---------|---------|   |
E----------|---------|---------|---------|   |
==============================================
Bm         Bm
Não vou ouvir o que não quero
    Em                 F#7
nem se me dizem não ou sim
       Bm           Bm
Porque eu não sou quem me fez
     Em    F#7
mas quem faço de mim.

RIFF

ESTROFE
    Bm      Bm            Em
E se eu sou   alguém que pensa 
        F#7
então direi
       Bm           Bm
que eu só tenho a mim
         Em       F#7
e tudo aquilo que eu sei.

RIFF

ESTROFE
Bm            Bm
  Sei toda a gente chora
Em         F#7
e poucos sabem porquê
   Bm      Bm        Em
e toda a gente olha para o céu
F#7
mas ninguém vê!

SOLO
      Bm            Bm           Em         F#7
E-------------|-------------|-----------|---------|
B--7-6-7-8-7--|-6-7-8-7-6-7-|-------5---|---------|
G-------------|-------------|-7-7-7---6-|-67-67-4-|
D-------------|-------------|-----------|---------|
A-------------|-------------|-----------|---------|
E-------------|-------------|-----------|---------|
      Bm            Bm          Em       F#7
E-------------|------------|----------|-------9-|
B--7-----7----|-7-6-7-8-7--|------5---|-11-12---|
G----44-----4-|------------|-7-7----6-|---------|
D-------------|------------|----------|---------|
A-------------|------------|----------|---------|
E-------------|------------|----------|---------|
     Bm        Bm         Em      F#7
E--10---7--|--------|-----------|--9---|
B--12---7--|--8--7--|-----------|--11--|
G--11---7--|--9--7--|-6-7-9-7-6-|--9---|
D----------|--------|-----------|------|
A----------|--------|-----------|------|
E----------|--------|-----------|------|

     Bm        Bm        Em         F#7    Bm     Bm
E--10---7--|--------|-----------|--------|-----|-----|
B--12---7--|--8--7--|-----------|--------|-----|-----|
G--11---7--|--9--7--|-6-7-9-7-6-|--7-6-7-|-4-4-|-4-4-|
D----------|--------|-----------|--------|-----|-----|
A----------|--------|-----------|--------|-----|-----|
E----------|--------|-----------|--------|-----|-----|

BRIDGE == um acorde forte suspenso de cada vez marcada ==
        Bm
"Salta porta fora
Bm             A          A
vai para onde tu quiseres
          G
e já que vais embora
G            F#7        F#7
  leva tudo quem tu és!"

== agora o dobro das vezes ==
    Bm          Bm
Hoje olho para trás a rir
A            A
  e é a tua vez de ouvir
G            G
eu sou quem sou
  F#7       F#7
e tu não me és ninguém


Bm Bm Em F#7 (repetir até fim)
Добавлено: 28.06.2013
Вам также может быть интересно:
Другие материалы по этой песне:
  • Аккорды и текст

Страница создана 28.06.2013
http://primanota.ru/prana/cruz-de-plastico-e-fita-cola-chords.htm
Привет, Гость.
Предлагаем пройти революционный курс по гитаре.
Подарок от PrimaNota.Ru, забирай!