PrimaNota.ru - самый крупный в мире бесплатный архив песенных текстов, аккордов, табулатур и нот


Praise - Last Resort - таба, видео

Регистрация Запомнить меня
Войти через:  Facebook Google Twitter Vk Yandex Mail.ru

Praise - Last Resort - таба, видео

Печатать
Просмотров: 116
Уроки эстрадного вокала в Санкт-Петербурге
When you have corrections please send me a e-mail   : chrisi.wohli@aon.at

Last Resort:

Intro:
e------------------------------------
b------------------------------------
g------------------------------------
d-9-9------7-7------5-5-----4-4--7-7-
a-7-7------5-5------3-3-----2-2--5-5-
e-7-7------5-5------3-3-----2-2--5-5-

Git2:
e-----------------------------------------------------------------
b-----------------------------------------------------------------
g---------4---------------4---------------4---------------4-------
d---5-4-5---5-4-5---5-4-5---5-4-5---5-4-5---5-4-5---5-4-5---5-4-5-
a-7---------------5---------------3---------------2---------------
e-----------------------------------------------------------------

Ref.: 2x
e---------------------------------------
b---------------------------------------
g---------------------------------------
d-9-9--99---5-5--55---5-5--55---9-9--99-
a-7-7--77---3-3--33---5-5--55---9-9--99-
e-7-7--77---3-3--33---3-3--33---7-7--77-

e--------------------------------------------------------------------
b--------------------------------------------------------------------
g--------------------------------------------------------------------
d-9-9-9-9-9-9-9-9--5-5-5-5-5-5-5-5--5-5-5-5-5-5-5-5--9-9-9-9-9-9-9-9-
a-7-7-7-7-7-7-7-7--3-3-3-3-3-3-3-3--5-5-5-5-5-5-5-5--9-9-9-9-9-9-9-9-
e-7-7-7-7-7-7-7-7--3-3-3-3-3-3-3-3--3-3-3-3-3-3-3-3--7-7-7-7-7-7-7-7-

Git2:
e--------------------------------------------------------------------
b--------------------------------------------------------------------
g-9-9-9-9-9-9-9-9--5-5-5-5-5-5-5-5-----------------------------------
d-x-x-x-x-x-x-x-x--x-x-x-x-x-x-x-x--5-5-5-5-5-5-5-5--9-9-9-9-9-9-9-9-
a-7-7-7-7-7-7-7-7--3-3-3-3-3-3-3-3--x-x-x-x-x-x-x-x--x-x-x-x-x-x-x-x-
e-----------------------------------3-3-3-3-3-3-3-3--7-7-7-7-7-7-7-7-


written by:  WOHLI
Добавлено: 15.06.2012
Вам также может быть интересно:
Другие материалы по этой песне:
  • Аккорды и текст

Страница создана 15.06.2012
http://primanota.ru/praise/last-resort-chords.htm
Привет, Гость.
Предлагаем пройти революционный курс по гитаре.
Подарок от PrimaNota.Ru, забирай!