PrimaNota.ru - самый крупный в мире бесплатный архив песенных текстов, аккордов, табулатур и нот


Powerwolf - Lucifer In Starlight - таба, видео

Регистрация Запомнить меня
Войти через:  Facebook Google Twitter Vk Yandex Mail.ru

Powerwolf - Lucifer In Starlight - таба, видео

Печатать
Просмотров: 417
-------------------------------------------------------------------------------
                        LUCIFER IN STARLIGHT - Powerwolf
-------------------------------------------------------------------------------
Tabbed by: teo.rockgirl

Tuning: D# standard (half step down)

Intro (clean; you can add a bit of distorsion though)
D#|------------------------------|--------------------------------------------|
A#|------------------------------|--------------------------------------------|
F#|------------------------------|--------------------------------------------|
C#|------------------------------|--------------------------------------------|
G#|--7~---9-10~---9-7-6~---7-9~--|----6-7~---9-10~---9-7-6~-------------------|
D#|------------------------------|--7-------------------------7~--------------|

Chorus (distorsion)

Gtr. 1 & Gtr. 2
D#|---------------------------|-----------------------------|
A#|---------------------------|-----------------------------|
F#|---------------------------|-----------------------------|
C#|---------------------------|-----------------------------|
G#|---------------------------|-----------------------------|
D#|--0---2-3---7-6---3-2---3--|--0---2-3---7-6---10-9---3---|


   Gtr. 1
D#|---------------------------|-----------------------------------------------|
A#|---------------------------|--10^12^10^12-------9^11^9^11------------------|
F#|---------------------------|-----------------------------------------------|
C#|---------------------------|-----------------------------------------------|
G#|---------------------------|-----------------------------------------------|
D#|--0---2-3---7-6---3-2---3--|-----------------------------------------------|
  |
  |
  |Gtr. 2
D#|---------------------------|-----------------------------------------------|
A#|---------------------------|-----------------------------------------------|
F#|---------------------------|-----------------------------------------------|
C#|---------------------------|--------------------8...-----------------------|
G#|---------------------------|--2-----------------6...-----------------------|
D#|--0---2-3---7-6---3-2---3--|--0--------------------------------------------|
                                                   let it ring

Verse (distorsion)- same as the intro, but ends a bit different
D#|------------------------------|----------------------------------|
A#|------------------------------|----------------------------------|
F#|------------------------------|----------------------------------|
C#|------------------------------|----------------------------------|
G#|--7~---9-10~---9-7-6~---7-9~--|----6-7~---9-10~---9-7-6~---7-9~--|
D#|------------------------------|--7-------------------------------|

D#|------------------------------|-------------------------|
A#|------------------------------|-------------------------|
F#|------------------------------|-------------------------|
C#|------------------------------|-------------------------|
G#|--7~---9-10~---9-7-6~---7-9~--|----6-7~---7-9-10~---14--|
D#|------------------------------|--7----------------------|

D#|---------------------------------------------------------------------------|
A#|---------------------------------------------------------------------------|
F#|---------------------------------------------------------------------------|
C#|---------------------------------------------------------------------------|
G#|--13h14p13h14p13h14p13h14p13h14p13h14--9h10p9h10p9h10p9h10p9h10p9h10-------|
D#|---------------------------------------------------------------------------|

Bridge
D#|-----------------------------------------------------|
A#|-----------------------------------------------------|
F#|-----------------------------------------------------|
C#|--5...---7...---5...---4-----------------------------|
G#|--3...---5...---3...---4-----------------------------|
D#|-----------------------2-2-2-2-2-2-2-2-2-2-2-2-2-2---|
                            * * * * * * * * * * * * *

D#|---------------------------|---------------------------|--------------------|
A#|---------------------------|---------------------------|--------------------|
F#|---------------------------|---------------------------|--------------------|
C#|--5--------5---------5-----|--5--------5---------5-----|--7--------7--------|
G#|--3--3--3--3--3-3-3--3--3--|--3--3--3--3--3-3-3--3--3--|--5--5--5--5--5-5-5-|
D#|---------------------------|---------------------------|--------------------|
        *  *     * * *     *        *  *     * * *     *        *  *     * * *

D#|--------|--------------------------|--------------------------|-------------|
A#|--------|--------------------------|--------------------------|-------------|
F#|--------|--------------------------|--------------------------|-------------|
C#|--7-----|--7--------7---------7----|-5--------5---------5-----|--5--------5-|
G#|--5--5--|--5--5--5--5--5-5-5--5--5-|-3--3--3--3--3-3-3--3--3--|--3--3--3--3-|
D#|--------|--------------------------|- --------------------- --|-------------|
        *        *  *     * * *     *      *  *     * * *     *        *  *

D#|---------------|---------------------------|-----------------------------|
A#|---------------|---------------------------|-----------------------------|
F#|---------------|---------------------------|-----------------------------|
C#|---------5-----|---------------------------|-----------------------------|
G#|--3-3-3--3--3--|--4--------4---------4-----|--4--------4---------4-------|
D#|---------------|--2--2--2--2--2-2-2--2--2--|--2--2--2--2--2-2-2--2--2----|
     * * *     *        *  *     * * *     *        *  *     * * *     *

Solo
   Gtr. 1 (Gtr. 2 keeps playing the bridge)
D#|--------------------------------------8---------|
A#|--11p10----11p10----11p10----11p10------11-10---|
F#|---------8--------8--------8--------8---------8-|
C#|------------------------------------------------| x6
G#|------------------------------------------------|
D#|------------------------------------------------|

   Gtr. 1
D#|--11p10--------11p10----------------11p10--------11p10---------------/12~--|
A#|--------13p12--------13p12---12-12--------13p12--------13p12---12-12-------|
F#|---------------------------------------------------------------------------|
C#|---------------------------------------------------------------------------|
G#|---------------------------------------------------------------------------|
D#|---------------------------------------------------------------------------|
  |
  |Gtr. 2
D#|---------------------------------------------------------------------------|
A#|---------------------------------------------------------------------------|
F#|---------------------------------------------------------------------------|
C#|--7--7--7--7---7--7--7--7-----7--7---5--5--5--5---5--5--5--5----5--5--/9---|
G#|--5--5--5--5---5--5--5--5-----5--5---3--3--3--3---3--3--3--3----3--3--/7---|
D#|---------------------------------------------------------------------------|

The final chorus ends like this (Gtr. 1 & Gtr. 2)
D#|---------------------------|-----------------------------------------------|
A#|---------------------------|-----------------------------------------------|
F#|---------------------------|-----------------------------------------------|
C#|---------------------------|-----------------------------------------------|
G#|---------------------------|--2...-----------------------------------------|
D#|--0---2-3---7-6---3-2---3--|--0...-----------------------------------------|

End
D#|-------------------------------------------------------------------------|
A#|-------------------------------------------------------------------------|
F#|-------------------------------------------------------------------------|
C#|--8--8--8--8---8--8--8--8---8-8---4--4--4--4---4--4--4--4---4-4-----/9---|
G#|--6--6--6--6---6--6--6--6---6-6---2--2--2--2---2--2--2--2---2-2-----/7---|
D#|-------------------------------------------------------------------------|


************************************

 ~ - vibrato
 / - slide
 h - hammer on
 p - pull off
 * - palm mute
 ^ - bend

************************************
Добавлено: 05.11.2015
Другие материалы по этой песне:
  • Аккорды и текст

Страница создана 05.11.2015
http://primanota.ru/powerwolf/lucifer-in-starlight-chords.htm
Привет, Гость.
Предлагаем пройти революционный курс по гитаре.
Подарок от PrimaNota.Ru, забирай!