PrimaNota.ru - самый крупный в мире бесплатный архив песенных текстов, аккордов, табулатур и нот


Powderfinger - We Should Be Together Now - текст песни, таба, видео

Регистрация Запомнить меня
Войти через:  Facebook Google Twitter Vk Yandex Mail.ru

Powderfinger - We Should Be Together Now - текст песни, таба, видео

Печатать
Просмотров: 105
Уроки эстрадного вокала в Санкт-Петербурге
We Should Be Together Now 
Tabbed by Ben harper without any aid other than the CD

Any comments or suggestions to Wahooti_custaro@yahoo.com

KEY

7h9             - hammer
7p9             - pull off
11b12           - 11 bend to 12
11b12b11        - 11 bend to 12 and back to 11
/               - slide up
\               - slide down
 12>            - harmonic
|---|           - a bar
 ~              - vibrato
 X              - block


VERSE (PIANO) (0:20)
e--------------------------18---16---14--
b----------------------------------------
G----------------------------------------
D---8---6----4---------------------------
A---8---6----4---------------------------
E---6---4----2---------------------------

CHORUS (0:31)
GUITAR 1
e---------------------------------------------------
b---------------------------------------------------
G--10-10--10--10--6-6--6--6-------------------------
D--8--8---8---8---6-6--6--6--4-4--4--4--4-4--4--4----  X5
A--8--8---8---8---4-4--4--4--4-4--4--4--4-4--4--4----
E--6--6---6---6--------------2-2--2--2--2-2--2--2----

After that play this for 3 bars and let it ring out for the fourth
e|---|---|---|---|----------------------------------
b|---|---|---|---|----------------------------------
G|-8-|-8-|-8-|---|----------------------------------
D|-8-|-8-|-8-|---|---------------------------------
A|-6-|-6-|-6-|---|-----------------------------------
E|-6-|-6-|-6-|---|-----------------------------------

GUITAR 2 (0:46)
e---------------------------------------------------
b--6-----6-----6-----6-----6-----6-----6-----6------
G--8b10--8b10--8b10--8b10--8b10--8b10--8b10--8b10----
D----------------------------------------------------
A----------------------------------------------------
E----------------------------------------------------

e------------------------------------------------------
b--9~~~----9~~~----9~~~----9~~~----9/11----------------
G----8b10----8b10----8b10----8b10-------8~~~~~~~~~~~~--
D------------------------------------------------------
A------------------------------------------------------
E------------------------------------------------------

VERSE 2 (1:07)
BASS plays
e--------------------------------------
b--------------------------------------
G---------------6----------------------
D----8---8---------6b8-----------------
A--------------------------------------
E--6-------6--6------------------------

GUITAR 1 (1:38)
e-------------------------------------------
b-------------------------------------------
G-------------------------------------------
D---8---6----4-------8---6---6--------------
A---8---6----4-------8---6---4--------------
E---6---4----2-------6---4---2--------------

CHORUS AGAIN
GUITAR 1 starts at (1:48)
GUITAR 2 at (2:04)

SOLO (2:04)

GUITAR 1 keeps playing chorus

GUITAR 2
play all this twice
e------------------------------------------------------------
b------------------------------------------------------------
G----------6---------6---------6------------8b9--8b9b8-6-----
D------6h8-------6h8-------6h8---8p6-8-------------------8---
A--6h8-------6h8-------6h8-----------------------------------
E------------------------------------------------------------

e----------------------------------------------------------
b----------------------------------------------------------
G----------6---------6---------6---------------------------
D------6h8-------6h8-------6h8---8p6-8-----6h8-------------
A--6h8-------6h8-------6h8---------------------------------
E----------------------------------------------------------

CHORUS AGAIN

SOLO AGAIN until the end
     
Добавлено: 18.07.2013
Другие материалы по этой песне:
  • Аккорды и текст

Страница создана 12.03.2012
http://primanota.ru/powderfinger/we-should-be-together-now-chords.htm
Привет, Гость.
Предлагаем пройти революционный курс по гитаре.
Подарок от PrimaNota.Ru, забирай!