PrimaNota.ru - самый крупный в мире бесплатный архив песенных текстов, аккордов, табулатур и нот


Powderfinger - Sail The Wildest Stetch - бас-таба, видео

Регистрация Запомнить меня
Войти через:  Facebook Google Twitter Vk Yandex Mail.ru

Powderfinger - Sail The Wildest Stetch - бас-таба, видео

Печатать
Просмотров: 58
----------------------------------------------------------------------------
                 Sail the Wildest Stretch - Powderfinger
----------------------------------------------------------------------------
Tabbed by: Nathan P
E-mail: nathanphennel @ gmail dot com

Tuning: Standard

G|-------------------------------------------------------------------------|
D|----------------------------------------8--------------------------------|
A|-------------------8-6-6---------10-8-6----------------------------------|
E|--6---------10-8-6-------------------------------------------------------|

G|-------------------------------------------------------------------------|
D|----------------------------------------8-------5------------------------|
A|-------------------8-6-6---------10-8-6-------6--------------------------|
E|--6---------10-8-6--------------------------5----------------------------|

G|------------------------------------------------8------------------------|
D|----------------------------------------8--------------------------------|
A|-------------------8-6-6---------10-8-6----------------------------------|
E|--6---------10-8-6---------------------------8---------------------------|

Definitely not perfect but nothing is out there on this one. This is just an idea 
of what to play. Please someone take the time to fix this horrible tab! lol


| /  slide up
| \  slide down
| h  hammer-on
| p  pull-off
| ~  vibrato
| +  harmonic
| x  Mute note
============================================================================
Добавлено: 21.07.2013
Другие материалы по этой песне:
  • Аккорды и текст

Страница создана 21.07.2013
http://primanota.ru/powderfinger/sail-the-wildest-stetch-chords.htm
Привет, Гость.
Предлагаем пройти революционный курс по гитаре.
Подарок от PrimaNota.Ru, забирай!