PrimaNota.ru - самый крупный в мире бесплатный архив песенных текстов, аккордов, табулатур и нот


Powderfinger - Poison In Your Mind - таба, видео

Регистрация Запомнить меня
Войти через:  Facebook Google Twitter Vk Yandex Mail.ru

Powderfinger - Poison In Your Mind - таба, видео

Печатать
Просмотров: 75
                                POISON IN YOUR MIND
                                   POWDERFINGER

Tabbed by: Callum Foot
E-mail: calbie.yeah@gmail.com
Tuning: Standard

This is a cool powderfinger song from their last album, Golden Rule.


                                INTRO

   D
e|-------5--------| x8
B|-7--------7-----|
G|----7--------7--|
D|-0--------------|
A|----------------|
E|----------------|


                               VERSE 1

   D              Dsus4          D              D
e|-------5--------------5--------------8--7-----------5--------|
B|-7--------7-----8--------8-----8/10--------8--7--------7-----|
G|----7--------7-----7--------7--------------------7--------7--|
D|-0--------------0-----------------------------0--------------|
A|-------------------------------------------------------------|
E|-------------------------------------------------------------|
   Ooo            Ooo          Ooo                 Who's gonna-


   Bm             G              D              D
e|-------------------------------------5--------------5--------|
B|-7-----7--------8-----8--------7--------7-----7--------7-----|
G|----------7--------------7--------7--------7-----7--------7--|
D|----0--------0-----5--------5--0--------------0--------------|
A|----------------5--------------------------------------------|
E|-7-----------------------------------------------------------|
   Follow  you    into    the   night


   D
e|-------5--------| x2
B|-7--------7-----|
G|----7--------7--|
D|-0--------------|
A|----------------|
E|----------------|


   D              Dsus4          D                D
e|-------5--------------5--------------8--7-----------5--------|
B|-7--------7-----8--------8-----8/10--------8--7--------7-----|
G|----7--------7-----7--------7--------------------7--------7--|
D|-0--------------0-----------------------------0--------------|
A|-------------------------------------------------------------|
E|-------------------------------------------------------------|
   Ooo            Ooo          Ooo                 Who's gonna-


   Bm             G              D              D
e|-------------------------------------5--------------5--------|
B|-7-----7--------8-----8--------7--------7-----7--------7-----|
G|----------7--------------7--------7--------7-----7--------7--|
D|----0--------0-----5--------5--0--------------0--------------|
A|----------------5--------------------------------------------|
E|-7-----------------------------------------------------------|
   Dilute   the   poison in your mind              Who's gonna-


   G              D              D              D
e|----------------------5--------------5--------------5--------|
B|-8-----8--------7--------7-----7--------7-----7--------7-----|
G|----------7--------7--------7-----7--------7-----7--------7--|
D|----5--------5--0--------------0--------------0--------------|
A|-5-----------------------------------------------------------|
E|-------------------------------------------------------------|
   Colour   your  blue skies


   D
e|-------5--------|
B|-7--------7-----|
G|----7--------7--|
D|-0--------------|
A|----------------|
E|----------------|


                              CHORUS

   Bm             A              G              D
e|----------------------------------------------------5--------|
B|-7-----7--------5-----5--------3-----3--------7--------7-----|
G|----------7--------------6--------------4--------7--------7--|
D|----0--------0-----7--------7-----5--------5--0--------------|
A|----------------7--------------5-----------------------------|
E|-7-----------------------------------------------------------|  
   Did  you  ever feel   like a  call  in  the  night
   A    good    idea     laid to waste and left untried, now the-
   pillar of      dust that is   holding you    up,      is-
   crashing down around ---- the poison in your mind...


   D
e|-------5--------| x3
B|-7--------7-----|
G|----7--------7--|
D|-0--------------|
A|----------------|
E|----------------|


                VERSE 2   (same chords as verse one)


D           Dsus4      D 
Ooo         Ooo        Ooo
D           Bm           G       D  
Who's gonna bridge every river you cross,
D           Dsus4      D 
Ooo         Ooo        Ooo
D           Bm        G          D
Who's gonna carry the weight of your loss,
D           G           D
Who's gonna colour your blue sky



                    CHORUS 2 (same as first)


Bm           A           G           D
Did you ever feel like a call in the night,
Bm       A          G                D
A good idea laid to waste and left untried,
        Bm        A             G           D
Now the pillar of dust, That is holding you up,
     Bm             A                 G              D
It's crashing down around you now and poisoning your mind



                           BRIDGE


   D               D             D              D     F#M
e|-------2---------0h2-----------------2--------------------|
B|-3--------3-----------3--------3--------3--------3-----2--|
G|----2--------2-----------2--------2--------2-----2-----2--|
D|-0--------------------------0--0--------------0-----4-----|
A|----------------------------------------------------------|
E|----------------------------------------------------------|

   Bm             Bm    A     G
e|-------2--------------------------3--------|back to D, play through bridge twice
B|-3--------3--------3-----2--3--------3-----|
G|----4--------4-----4-----2-----0--------0--|
D|-4--------------------------0--------------|
A|----------------2-----0--------------------|
E|-------------------------------------------|



           Chorus 3 (same as first and second derp)



                           OUTRO

   D              Dsus4          D              D (let ring)
e|-------5--------------5--------------8--7--------|
B|-7--------7-----8--------8-----8/10--------8--7--|
G|----7--------7-----7--------7--------------------|
D|-0--------------0-----------------------------0--|
A|-------------------------------------------------|
E|-------------------------------------------------|

This is all, i wish you much love. :D
Добавлено: 09.10.2013
Другие материалы по этой песне:
  • Аккорды и текст

Страница создана 09.10.2013
http://primanota.ru/powderfinger/poison-in-your-mind-chords.htm
Привет, Гость.
Предлагаем пройти революционный курс по гитаре.
Подарок от PrimaNota.Ru, забирай!