PrimaNota.ru - самый крупный в мире бесплатный архив песенных текстов, аккордов, табулатур и нот


Powderfinger - Lemon Sunrise - текст песни, таба, видео

Регистрация Запомнить меня
Войти через:  Facebook Google Twitter Vk Yandex Mail.ru

Powderfinger - Lemon Sunrise - текст песни, таба, видео

Печатать
Просмотров: 70
Verse

G1
E|--------------------------------------------|
B|--------------------------------------------|
G|-----------2---4/6--------------------------|
D|---2---4------------------------------------|
A|--------------------------------------------|
E|--------------------------------------------|
                 (let It Ring)
G2
E|--------------------------------------------|
B|-----------------------14----14----14-------|
G|-----------------------14----14----14-------|
D|-----------------------14----14----14-------|
A|--------------------------------------------|
E|--------------------------------------------|

G1
E|--------------------------------------------|
B|--------------------------------------------|
G|-----------2---4----------------------------|
D|---2---4------------------------------------|
A|--------------------------------------------|
E|--------------------------------------------|
                 (let It Ring)
G2
E|--------------------------------------------|
B|-----------------------12----12----12-------|
G|-----------------------12----12----12-------|
D|-----------------------12----12----12-------|
A|--------------------------------------------|
E|--------------------------------------------|

Chorus

E|----------------------------|
B|--------------------10------|
G|--------9---------------11--|
D|-----9-----9----------------|
A|--7-----------9--12---------|
E|----------------------------|

Verse

Chorus


Interlude (with chords on keyboard and slide guitar)

  A                                  A        A    G#

E|------------------------------|-------------------------|
B|-------12b(14)r-b(14)r-b(14)--|-----14b(17)-14--14h12---|
G|------------------------------|-------------------------|
D|------------------------------|-------------------------|
A|------------------------------|-------------------------|
E|------------------------------|-------------------------|

  G                               G         G      G#

E|------------------------------|-------------------------|
B|------------------------------|-------------------------|
G|--14--14/16--------------16p14|-h16---------------------|
D|------------------------------|-------------------------|
A|------------------------------|-------------------------|
E|------------------------------|-------------------------|


  A                                  A         A     G#

E|--------------15---14---12----|--10-10/12--10-----------|
B|--------------17---15---14----|--12-12/14--12----8~-----|
G|------------------------------|-------------------------|
D|------------------------------|-------------------------|
A|------------------------------|-------------------------|
E|------------------------------|-------------------------|

  G                               G

E|------------------------------|-------------------------|
B|------------------------------|------------8------------|
G|-7h9~-------------------------|-7h9---------------------|
D|------------------------------|-------------------------|
A|------------------------------|-------------------------|
E|------------------------------|-------------------------|

  D                                D

E|------------------------------|-------------------------|
B|-------8--7----7h8-7----------|-------------------------|
G|---------------------------9~-|----7~-------------------|
D|------------------------------|-------------------------|
A|------------------------------|-------------------------|
E|------------------------------|-------------------------|

  D                               D

E|------------------------------|-------------------------|
B|------------------------------|-------------------------|
G|------------------------------|-------------------------|
D|--7~--------------------------|--7h9-9-9-9--7--9/12-----|
A|------------------------------|-------------------------|
E|------------------------------|-------------------------|

Chorus repeat

End with
E|-------------------------------|
B|---------------------12b(14)---|
G|--------2--4/6-----------------|
D|--2--4-------------------------|
A|-------------------------------|
E|-------------------------------|

End
Добавлено: 08.10.2013
Другие материалы по этой песне:
  • Аккорды и текст

Страница создана 30.03.2012
http://primanota.ru/powderfinger/lemon-sunrise-chords.htm
Привет, Гость.
Предлагаем пройти революционный курс по гитаре.
Подарок от PrimaNota.Ru, забирай!