PrimaNota.ru - самый крупный в мире бесплатный архив песенных текстов, аккордов, табулатур и нот


Powderfinger - Hurried Bloom - текст песни, таба, видео

Регистрация Запомнить меня
Войти через:  Facebook Google Twitter Vk Yandex Mail.ru

Powderfinger - Hurried Bloom - текст песни, таба, видео

Печатать
Просмотров: 93
 
Powderfinger - Hurried Bloom
Album - Parables for Wooden Ears
 
 
INTRO & VERSE: 
E-|----------------|- 
B-|----------3---3-|- 
G-|---0------0h2-2-|- 
D-|---2--0---0---0-|- 
A-|-2-2--2---------|- 
E-|-0----3---------|- 
 
CHORUS: 
    Em   C    F#m  D A 
E-|--------------------|- 
B-|-0-0--1-1--2-2--3-2-|- 
G-|-0-0--0-0--2-2--2-2-|- 
D-|-2-2--2-2--4-4--0-2-|- 
A-|-2-2--3-3--4-4----0-|- 
E-|-0-0-------2-2------|- 
 
BRIDGE: 
E-|------------|------------|------------|--------------|- 
B-|-5--5--3--5-|-5--5--3--1-|-5--5--0--1-|--------------|- 
G-|-5--5--4--5-|-5--5--2--2-|-5--5--1--2-|-7--7---10-10-|- 
D-|-7--7--5--7-|-7--7--0--3-|-7--7--2--3-|-7--7---10-10-|-(x 2) 
A-|-7--7--5--7-|-7--7-----3-|-7--7--2--3-|-5--5--/8--8--|- 
E-|-5--5--3--5-|-5--5-----1-|-5--5--0--1-|--------------|- 
 
SOLO OVER THIS: 
E-|--------|- 
B-|--------|- 
G-|---0----|- 
D-|---2--0-|- 
A-|-2-2--2-|- 
E-|-0----3-|- 
 
 


Добавлено: 13.10.2013
Другие материалы по этой песне:
  • Аккорды и текст

Страница создана 28.07.2012
http://primanota.ru/powderfinger/hurried-bloom-chords.htm
Привет, Гость.
Предлагаем пройти революционный курс по гитаре.
Подарок от PrimaNota.Ru, забирай!