PrimaNota.ru - самый крупный в мире бесплатный архив песенных текстов, аккордов, табулатур и нот


Powderfinger - Grave Concern - текст песни, таба, видео

Регистрация Запомнить меня
Войти через:  Facebook Google Twitter Vk Yandex Mail.ru

Powderfinger - Grave Concern - текст песни, таба, видео

Печатать
Просмотров: 78
 
Powderfinger - Grave Concern
Album - Parables for Wooden Ears


TRO/VERSE 1: 
E-|------------------------|-----------------------------|- 
B-|------------------------|-----------------------------|- 
G-|-5p3-0-5-3----3p0-------|--3h5p3p0-0-5-3----3p0-------|- 
D-|------------------0-3/5-|-----------------------0-3/5-|- 
A-|------------------------|-----------------------------|- 
E-|------------------------|-----------------------------|- 
 
E-|------------------------|-----------------------------|- 
B-|------------------------|-----------------------------|- 
G-|-5p3-0-5-3----3p0-------|--3h5p3p0-0-5-3----3p0-------|- 
D-|------------------0-3/5-|-----------------------0-3/5-|- 
A-|------------------------|-----------------------------|- 
E-|------------------------|-----------------------------|- 
 
E-|------------------------|- 
B-|------------------------|- 
G-|-5p3-0-5-3----3p0-------|- 
D-|------------------0-3/5-|- 
A-|------------------------|- 
E-|------------------------|- 
 
PRE CHORUS: 
E-|--------------------|- 
B-|--------------------|- 
G-|------3/5-5-5/7-7-7-|- 
D-|-7-7--3/5-5-5/7-7-7-|-(x 2) 
A-|-7-7--1/3-3-3/5-5-5-|- 
E-|-5-5----------------|- 
 
E-|--------------------|---|- 
B-|--------------------|---|- 
G-|------3/5-5-5/7-7-7-|-3-|- 
D-|-7-7--3/5-5-5/7-7-7-|-5-|- 
A-|-7-7--1/3-3-3/5-5-5-|-5-|- 
E-|-5-5----------------|-3-|- 
 
2ND VERSE: 
E-|---------------------------------------------------|- 
B-|---------------------------------------------------|- 
G-|----------------------------5p3-0-5-3----3p0-------|- 
D-|-5/8-8-8/10-10-10/12-12--5-------------------0-3/5-|-(x 3) 
A-|-5/8-8-8/10-10-10/12-12--5-------------------------|- 
E-|-3/6-6-6/8--8--8/-10-10--3-------------------------|- 
 
E-|-------------------------|- 
B-|-------------------------|- 
G-|-------------------------|- 
D-|-5/8-8-8/10-10-10/12-12--|- 
A-|-5/8-8-8/10-10-10/12-12--|- 
E-|-3/6-6-6/8--8--8/-10-10--|- 
 
PRE CHORUS: 
E-|--------------------|-       E-|------|- 
B-|--------------------|-       B-|------|- 
G-|------3/5-5-5/7-7-7-|-       G-|------|- 
D-|-7-7--3/5-5-5/7-7-7-|-(x 6)  D-|-6--8-|- 
A-|-7-7--1/3-3-3/5-5-5-|-       A-|-6--8-|- 
E-|-5-5----------------|-       E-|-4--6-|- 
 
CHORUS: 
E-|---------|- 
B-|---------|- 
G-|---------|- 
D-|-3--6--8-|-(x 3) 
A-|-3--6--8-|- 
E-|-1--4--6-|- 
 
E-|------------------|- 
B-|------------------|- 
G-|-10-8-6-5---------|- 
D-|-10-8-6-5-8-6/8-8-|-(x 4) 
A-|-8--6-4-3-8-6/8-8-|- 
E-|----------6-4/6-6-|- 
 
3RD VERSE: (AD LIB) 
E-|----------------|- 
B-|-5-5--5\--------|- 
G-|-5-5--5\3-0-----|- 
D-|------------3/5-|-(x 5) 
A-|----------------|- 
E-|----------------|- 
 
PRE CHORUS: 
E-|--------------------|- 
B-|--------------------|- 
G-|------3/5-5-5/7-7-7-|- 
D-|-7-7--3/5-5-5/7-7-7-|-(x 6) 
A-|-7-7--1/3-3-3/5-5-5-|- 
E-|-5-5----------------|- 
 
SOLO OVER THIS: 
E-|-----------|- 
B-|-----------|- 
G-|-8--8--7-8-|- 
D-|-8--8--7-8-|-(x 4) 
A-|-6--6--5-6-|- 
E-|-----------|- 
 
CHORUS: 
E-|---------|- 
B-|---------|- 
G-|---------|- 
D-|-3--6--8-|-(x 4) 
A-|-3--6--8-|- 
E-|-1--4--6-|- 
 
E-|------------------|- 
B-|------------------|- 
G-|-10-8-6-5---------|- 
D-|-10-8-6-5-8-6/8-8-|-(x 8) 
A-|-8--6-4-3-8-6/8-8-|- 
E-|----------6-4/6-6-|- 
 
 
Добавлено: 06.11.2013
Другие материалы по этой песне:
  • Аккорды и текст

Страница создана 01.06.2012
http://primanota.ru/powderfinger/grave-concern-chords.htm
Привет, Гость.
Предлагаем пройти революционный курс по гитаре.
Подарок от PrimaNota.Ru, забирай!