PrimaNota.ru - самый крупный в мире бесплатный архив песенных текстов, аккордов, табулатур и нот


Powderfinger - Dont Want To Be Left Out - таба, видео

Регистрация Запомнить меня
Войти через:  Facebook Google Twitter Vk Yandex Mail.ru

Powderfinger - Dont Want To Be Left Out - таба, видео

Печатать
Просмотров: 106
Уроки эстрадного вокала в Санкт-Петербурге
Powderfinger - Dont Want To Be Left Out
ALbum - Internationalist


Intro (Lots of distortion.)
--------------------------------------------------|
--------------------------------------------------|
--------------------------------------------------|
-(15-/-0)-------------------------------------55--|
 (16-/-1)---1111111--44444444--1111111--4-666666--|repeat twice.


Verse.
--------------------------------------|
--------------------------------------|
--------------------------------------|
--------------------------------------|
--------------------------------------|
-1111111--4444444--1111111--4-666666--|repeat 4 times

Chorus.
------------------------------------------------------------------------------|
------------------------------------------------------------------------------|
------66666666----------------------------------------------------------------|
-6-6--66666666--6666666--44444--66--------------------------------------------|
-6-6--44444444--6666666--44444--66--------------------------------------------|
-8-8------------4444444--66666--88-------repeat 4 times-----------------------|


Do verse again. This time with a higher f over the top on a lead guitar (eg.
10th fret of the g string.

Then its the chorus again.

Then they play this interlude with some pretty nice drum fills.
---------------------------------------------------------------|
---------------------------------------------------------------|
--10-10-10-10-10-10-10-10--------------------------------------|
--10-10-10-10-10-10-10-10---66666666--11-11-11-11-11-11-11-11--|
--8  8  8  8  8  8  8  8 ---66666666--11-11-11-11-11-11-11-11--|
----------------------------44444444--9  9  9  9  9  9  9  9  -|


--------------------------------------------------------------------------------|
--------------------------------------------------------------------------------|
--------------------------------------------------------------------------------|
-10-10-10-10-10-10-10-10--------------------------------------------------------|
-10-10-10-10-10-10-10-10--------------------------------------------------------|
-8  8  8  8  8  8  8  8 --------------------------------------------------------|

Then there is this lead. with the f on the 10th fret of the g string played 4
times in each bar.
-----------------------------------------------------------------------------|
-----------------------------------------------------------------------------|
--10-10-10-10-10-10-10-13-13-13-13-13-13-13-10-10-10-10-10-10-10-13-16-16-16-|
-----------------------------------------------------------------------------|
-----------------------------------------------------------------------------|
-----------------------------------------------------------------------------|
Repeat that a few times.
Then the chorus is played again.
Thats it!
Добавлено: 06.08.2013
Другие материалы по этой песне:
  • Аккорды и текст

Страница создана 06.08.2013
http://primanota.ru/powderfinger/dont-want-to-be-left-out-chords.htm
Привет, Гость.
Предлагаем пройти революционный курс по гитаре.
Подарок от PrimaNota.Ru, забирай!