PrimaNota.ru - самый крупный в мире бесплатный архив песенных текстов, аккордов, табулатур и нот


Powderfinger - Boing Boing - текст песни, таба, видео

Регистрация Запомнить меня
Войти через:  Facebook Google Twitter Vk Yandex Mail.ru

Powderfinger - Boing Boing - текст песни, таба, видео

Печатать
Просмотров: 114
Уроки эстрадного вокала в Санкт-Петербурге
Powderfinger - Glimpse
Album - Double Allergic
 
INTRO: 
E-|----------------------------------------------------|- 
B-|----------------------------------------------------|- 
G-|----------------------------------------------------|- 
D-|----------------------------------------------------|-(x 4) 
A-|-----3-----3-----3-----3-----3-5------3-----3---3-5-|- 
D-|-0-0---0-0---0-0---0-0---0-0------0-0---0-0---0-----|- 
 
VERSE RIFF: 
E-|---------------------------------|- 
B-|---------------------------------|- 
G-|---------------------------------|-(1ST VERSE x 6) 
D-|---------------------------------|-(2ND VERSE x 4) 
A-|-------2-3-----------------------|- 
D-|-0---0-----2---0-2-3-5---0-3-2-0-|- 
 
PRE CHORUS: (This part is really hard to hear, so it may be wrong) 
E-|----------------------------------|- 
B-|----------------------------------|- 
G-|----------------------------------|- 
D-|--------5-----------------5-------|- 
A-|----3------3---3------3-----3---3-|- 
D-|--3---3------3------3---3-----3---|- 
 
SCREAM BIT: (USE YOUR WAH WAH) 
E-|---------------------|- 
B-|---------------------|- 
G-|---------------------|- 
D-|---------------------|- (X 4) 
A-|-8~~--8~~--7~~--6~~--|- 
D-|---------------------|- 
 
CHORUS: 
E-|---------------------------------|- 
B-|---------------------------------|- 
G-|-------4-5-----------------------|- 
D-|-0---0-4-5-2---0-2-3-5---0-3-2-0-|- 
A-|-0---0-2-3-2---0-2-3-5---0-3-2-0-|- 
D-|-0---0-----2---0-2-3-5---0-3-2-0-|- 
 
 
BRIDGE: 
E-|---------------------------------|- 
B-|---------------------------------|- 
G-|---------------------------------|- 
D-|---------------------------------|-(x 3) 
A-|---5h6-----5h6------5h6------5h6-|- 
D-|-0-------0--------0--------0-----|- 
 
E-|-----------------------------------|- 
B-|-----------------------------------|- 
G-|-----------------------------------|- 
D-|-----------------------------------|- 
A-|---10h12---10h12----10h12----10h12-|- 
D-|-0-------0--------0--------0-------|- 
 
SCREAM BIT: (USE YOUR WAH WAH) 
E-|---------------------|- 
B-|---------------------|- 
G-|---------------------|- 
D-|---------------------|- (X 8) 
A-|-8~~--8~~--7~~--6~~--|- 
D-|---------------------|- 
 
OUTRO: 
E-|---------------------------------|- 
B-|---------------------------------|- 
G-|---------------------------------|-(x 2) 
D-|---------------------------------|- 
A-|-------2-3-----------------------|- 
D-|-0---0-----2---0-2-3-5---0-3-2-0-|- 
 

Добавлено: 09.07.2013
Другие материалы по этой песне:
  • Аккорды и текст

Страница создана 02.05.2012
http://primanota.ru/powderfinger/boing-boing-chords.htm
Привет, Гость.
Предлагаем пройти революционный курс по гитаре.
Подарок от PrimaNota.Ru, забирай!