PrimaNota.ru - самый крупный в мире бесплатный архив песенных текстов, аккордов, табулатур и нот


Postmortem Promises - Rotting Brains And Carnage - таба, видео

Регистрация Запомнить меня
Войти через:  Facebook Google Twitter Vk Yandex Mail.ru

Postmortem Promises - Rotting Brains And Carnage - таба, видео

Печатать
Просмотров: 146
Уроки эстрадного вокала в Санкт-Петербурге
Postmortem Promises
Rotting Brains and Carnage

7-String Tuning: BEADGBE

Both Gtrs
|-----------------------------------------------|
|-----------------------------------------------|
|-----------------------------------------------| x2
|----9-11-12-----------------8-9-11-------------|
|----x-x---x-----------------x-x--x-------------|
|----7-9--10-----------------6-7--9-------------|
|0-0----------0-0-5-8-4--0-0---------0-0-4-5-1--|
 . .          . . " " "  . .         . . " " "

Both Gtrs                                        1,3         2         4
|---------------------------------------------------|---------|---------|
|---------------------------------------------------|---------|---------|
|---------------------------------------------------|---------|---------|
|---------------------------------------------------|---------|---------|
|---------------------------------------------------|---------|---------|
|-----7---9---10-------6---7---9-------7---9---10---|---------|---------|
|-0-0---0---0----0-0-0---0---0---0-0-0---0---0----0-|-5-8-4-7-|-4-5-1-4-|
  . .   .   .    . . .   .   .   . . .   .   .        " " " "   " " " "

Gtr 1                                            1,3         2         4
|---------------------------------------------------|---------|---------|
|---------------------------------------------------|---------|---------|
|---------------------------------------------------|---------|---------|
|---------------------------------------------------|---------|---------|
|---------------------------------------------------|---------|---------|
|-----7---9---10-------6---7---9-------7---9---10---|---------|---------|
|-0-0---0---0----0-0-0---0---0---0-0-0---0---0----0-|-5-8-4-7-|-4-5-1-4-|
  . .   .   .    . . .   .   .   . . .   .   .        " " " "   " " " " |
Gtr 2                                                                   |
|---------------------------------------------------|---------|---------|
|---------------------------------------------------|---------|---------|
|---------------------------------------------------|---------|---------|
|---------------------------------------------------|---------|---------|
|-----5---7----9-------4---5---7-------5---7----9---|---------|---------|
|---------------------------------------------------|-3-7-2-6-|---------|
|-0-0---0---0----0-0-0---0---0---0-0-0---0---0----0-|---------|-7-8-5-7-|
  . .   .   .    . . .   .   .   . . .   .   .    .   " " " "   " " " "

Both Gtrs
|---------------------------------------------------------------------|
|---------------------------------------------------------------------|
|---------------------------------------------------------------------| x2
|---------------------------------------------------------------------|
|---------------------------9-7------------------------------7--------|
|-----7---9---10-------10-------10-9-----6---7---9-------9-----10-9-7-|
|-0-0---0---0----0-0-0----0----------0-0---0---0---0-0-0---0----------|
  . .   .   .    . . .    .          . .   .   .   . . .   .

Both Gtrs
|---------------------------------------------------------------------|
|---------------------------------------------------------------------| x2
|---------------------------------------------------------------------|
|-------------------------------------------------------------7-------|
|--------9-7--------------7----------------9-7------10-9-7------10-9-7|
|------------10-9-----------10-9-7-------------10-9--------10---------|
|000-000----------000-000----------000-000----------------------------|
 ... ...          ... ...          ... ...

Gtr 1
|-----------------------------------------------|
|-----------------------------------------------|
|-----------------------------------------------|
|----------9----------8----------11----------12-|
|----------x----------x-----------x-----------x-|
|----------7----------6-----------9----------10-|
|-000-000----000-000----000-000-----000-000-----|
  ... ...    ... ...    ... ...     ... ...     | x4
Gtr 2                                           |
|-----------------------------------------------|
|-----------------------------------------------|
|-----------------------------------------------|
|---------12---------11----------14----------16-|
|----------x----------x-----------x-----------x-|
|---------10----------9----------12----------14-|
|-000-000----000-000----000-000-----000-000-----|
  ... ...    ... ...    ... ...     ... ...

Both Gtrs                                        1,3         2         4
|---------------------------------------------------|---------|---------|
|---------------------------------------------------|---------|---------|
|---------------------------------------------------|---------|---------|
|---------------------------------------------------|---------|---------|
|---------------------------------------------------|---------|---------|
|-----7---9---10-------6---7---9-------7---9---10---|---------|---------|
|-0-0---0---0----0-0-0---0---0---0-0-0---0---0----0-|-5-8-4-7-|-4-5-1-4-|
  . .   .   .    . . .   .   .   . . .   .   .        " " " "   " " " "

Gtr 1                                            1,3         2         4
|---------------------------------------------------|---------|---------|
|---------------------------------------------------|---------|---------|
|---------------------------------------------------|---------|---------|
|---------------------------------------------------|---------|---------|
|---------------------------------------------------|---------|---------|
|-----7---9---10-------6---7---9-------7---9---10---|---------|---------|
|-0-0---0---0----0-0-0---0---0---0-0-0---0---0----0-|-5-8-4-7-|-4-5-1-4-|
  . .   .   .    . . .   .   .   . . .   .   .        " " " "   " " " " |
Gtr 2                                                                   |
|---------------------------------------------------|---------|---------|
|---------------------------------------------------|---------|---------|
|---------------------------------------------------|---------|---------|
|---------------------------------------------------|---------|---------|
|-----5---7----9-------4---5---7-------5---7----9---|---------|---------|
|---------------------------------------------------|-3-7-2-6-|---------|
|-0-0---0---0----0-0-0---0---0---0-0-0---0---0----0-|---------|-7-8-5-7-|
  . .   .   .    . . .   .   .   . . .   .   .    .   " " " "   " " " "

Gtr 1 (Gtr 2 is silent)
|----------------------------|
|----------------------------|
|----------------------------|
|----------------------------|
|----------------------------|
|-2-2-2--2-2-2--2-2-2--2-2-2-|
|-0-0-0--0-0-0--0-0-0--0-0-0-|
  . . .  . . .  . . .  . . .

Both Gtrs
|----------------------------|
|----------------------------| x4
|----------------------------|
|----------------------------|
|----------------------------|
|-2-2-2--2-2-2--2-2-2--2-2-2-|
|-0-0-0--0-0-0--0-0-0--0-0-0-|
  . . .  . . .  . . .  . . .

Gtr 1
|--------------------------------------------------------|
|--------------------------------------------------------|
|--------------------------------------------------------|
|--------------------------------------------------------|
|--------------------------------------------------------|
|-2-2-2--2-2-2--2-2-2--2-2-2--2-2-2--2-2-2--2-2-2--2-2-2-|
|-0-0-0--0-0-0--0-0-0--0-0-0--0-0-0--0-0-0--0-0-0--0-0-0-|
  . . .  . . .  . . .  . . .  . . .  . . .  . . .  . . . |
Gtr 2                                                    |
|--------------------------------------------------------|
|--------------------------------------------------------| Timing is off
|--------------------------------------------------------|
|--------------------------------------------------------|
|--------------------------------------------------------|
|--------------------------------------------------------|
|5--4--5--7--8--7---5---4---5---4---5---7---5---4---1---4|
 "  "  "  "  "  "   "   "   "   "   "   "   "   "   "   "

Gtr 1
|-------------------------------------------------------|
|-------------------------------------------------------| 
|-------------------------------------------------------| 
|-------------------------------------------------------| 
|-------------------------------------------------------| 
|-2-2-2--2-2-2--2-2-2--2-2-2--2-2-2--2-2-2--7--6--3--6--| 
|-0-0-0--0-0-0--0-0-0--0-0-0--0-0-0--0-0-0--5--4--1--4--|
  . . .  . . .  . . .  . . .  . . .  . . .  .  .  .  .  |
Gtr 2                                                   |
|-------------------------------------------------------|
|-------------------------------------------------------|
|-------------------------------------------------------| Timing is off
|-------------------------------------------------------|
|-------------------------------------------------------|
|-------------------------------------------7--6--3--6--|
|5--4--5--7--8--7---5---4---5---4---5---7---5--4--1--4--|
 "  "  "  "  "  "   "   "   "   "   "   "   .  .  .  .


Both Gtrs
|------------------------------------------------|
|------------------------------------------------|
|------------------------------------------------| x3
|------------------------------------------------|
|------------------------------------------------|
|-7--6--7--9-10--9--7--6--7--6--7--9--7--6--3--6-|
|-5--4--5--7--8--7--5--4--5--4--5--7--5--4--1--4-|
  .  .  .  .  .  .  .  .  .  .  .  .  .  .  .  .

Both Gtrs
|------------------------------------------------|
|------------------------------------------------|
|------------------------------------------------|
|------------------------------------------------|
|------------------------------------------------|
|-7--6--7--9-10--9--7--6--7--6--7--9-------------|
|-5--4--5--7--8--7--5--4--5--4--5--7-------------|
  .  .  .  .  .  .  .  .  .  .  .  .


Both Gtrs
|----------------------------------------------------------------|
|----------------------------------------------------------------|
|----------------------------------------------------------------| x4
|----------------------------------------------------------------|
|----------------------------------------------------------------|
|3p2-----3---6---3p2-----3------3p2-----3---6---3p2-----3--3--3--|
|1p0-0-0-1-0-4-0-1p0-0-0-1------1p0-0-0-1-0-4-0-1p0-0-0-1--1--1--|
     . .   .   .     . .            . .   .   .     . . .  .  .

Both Gtrs
|----------------|
|----------------|
|----------------| x4
|----------------|
|----------------|
|-2------3--3--3-|
|-0------1--1--1-|
         .  .  .

Both Gtrs
|----------------------------------------------------------------|
|----------------------------------------------------------------|
|----------------------------------------------------------------| x2
|----------------------------------------------------------------|
|----------------------------------------------------------------|
|3p2-----3---6---3p2-----3------3p2-----3---6---3p2-----3--3--3--|
|1p0-0-0-1-0-4-0-1p0-0-0-1------1p0-0-0-1-0-4-0-1p0-0-0-1--1--1--|
     . .   .   .     . .            . .   .   .     . . .  .  .

Both Gtrs               1,2                        3,4              5
|--------------------------|--------------------------|--------------|
|--------------------------|--------------------------|--------------|
|--------------------------|--------------------------|--------------|
|--------------------------|--------------------------|--------------|
|--------------------------|--------------------------|--------------|
|-2--2--2--2-2-2--2-2-2--2-|-3--3--3--3-3-3--3-3-3--3-|-2--2-2-2--2--|
|-0--0--0--0-0-0--0-0-0--0-|-1--1--1--1-1-1--1-1-1--1-|-0--0-0-0--0--|
  .  .  .  . . .  . . .  .   .  .  .  . . .  . . .  .   .  . . .  .

Gtr 1
|-----------------------------------------------------|
|-----------------------------------------------------|
|-----------------------------------------------------|
|-----------------------------------------------------|
|-----------------------------------------------------|
|-2--2-2-2--2------2--2-2-2--2------2--2-2-2--2-------|
|-0--0-0-0--0------0--0-0-0--0------0--0-0-0--0--/12\-|
  .  . . .  .      .  . . .  .      .  . . .  .       |
Gtr 2                                                 |
|-----------------------------------------------------|
|-----------------------------------------------------|
|-----------------------------------------------------|
|-----------------------------------------------------|
|-----------------------------------------------------|
|(2)--------------------------------------------------|
|(0)---------------------------------------------/12\-|
  ^Last note of previous riff.

Both Gtrs
|-------------------------------|
|-------------------------------| x3
|-------------------------------|
|-------------------------------|
|-------------------------------|
|-2--2-2-2--2------2--2-2-2--2--|
|-0--0-0-0--0------0--0-0-0--0--|
  .  . . .  .      .  . . .  .

Both Gtrs
|-------------------------------|
|-------------------------------|
|-------------------------------|
|-------------------------------|
|-------------------------------|
|-2--2-2-2--2------2--3--6--3--2|
|-0--0-0-0--0------0--1--4--1--0|
  .  . . .  .

END
Добавлено: 28.07.2012
Другие материалы по этой песне:
  • Аккорды и текст

Страница создана 28.07.2012
http://primanota.ru/postmortem-promises/rotting-brains-and-carnage-chords.htm
Привет, Гость.
Предлагаем пройти революционный курс по гитаре.
Подарок от PrimaNota.Ru, забирай!