PrimaNota.ru - самый крупный в мире бесплатный архив песенных текстов, аккордов, табулатур и нот


Postmortem Promises - Beast Of The Black Forest - таба, видео

Регистрация Запомнить меня
Войти через:  Facebook Google Twitter Vk Yandex Mail.ru

Postmortem Promises - Beast Of The Black Forest - таба, видео

Печатать
Просмотров: 167
Postmortem Promises
Beast of the Black Forest
B Tuning (7-String)

Gtr 1                1,3                       2                       4
|-----------------------|-----------------------|-----------------------|
|-----------------------|-----------------------|-----------------------|
|-----------------------|-----------------------|-----------------------|
|-----------------------|-----------------------|-----------------------|
|-----------------------|-----------------------|-----------------------|
|3-3-3------------------|2-2-2------------------|8-8-8------------------|
|1-1-1------------------|0-0-0------------------|6-6-6------------------|
 . . .                   . . .                   . . .                  |
Gtr 2                1,3                       2                       4|
|-----------------------|-----------------------|-----------------------|
|-----------------------|-----------------------|-----------------------|
|-----------------------|-----------------------|-----------------------|
|-----------------------|-----------------------|-----------------------|
|-----------------------|-----------------------|-----------------------|
|-----------------------|-----------------------|-----------------------|
|1-1-1-4-1-1-3-1-1-1-1-1|0-0-0-3-0-0-1-0-0-0-0-0|6-6-6-4-3-3-3-3-3-4-4-4|
 . . .   . .   . .   . . . . .   . .   . .   . . . . .   . .   . . . . .


Gtr 1                1,3                       2                       4
|-----------------------|-----------------------|-----------------------|
|-----------------------|-----------------------|-----------------------|
|-----------------------|-----------------------|-----------------------|
|-----------------------|-----------------------|-----------------------|
|-----------------------|-----------------------|-----------------------|
|3-3-3------------------|2-2-2------------------|-----------------------|
|1-1-1------------------|0-0-0------------------|6-----4-----3-----4----|
 . . .                   . . .                   "     "     "     "    |
Gtr 2                1,3                       2                       4|
|-----------------------|-----------------------|-----------------------|
|-----------------------|-----------------------|-----------------------|
|-----------------------|-----------------------|-----------------------|
|-----------------------|-----------------------|-----------------------|
|-----------------------|-----------------------|-----------------------|
|-----------------------|-----------------------|-----------------------|
|1-1-1-4-1-1-3-1-1-1-1-1|0-0-0-3-0-0-1-0-0-0-0-0|6-----4-----3-----4----|
 . . .   . .   . .   . . . . .   . .   . .   . . "     "     "     "


Both Gtrs            1,3                       2                       4
|-----------------------|-----------------------|-----------------------|
|-----------------------|-----------------------|-----------------------|
|-----------------------|-----------------------|-----------------------| x2
|-----------------------|-----------------------|-----------------------|
|-----------------------|-----------------------|-----------------------|
|-----------------------|-----------------------|-----------------------|
|1-----4-----3-----1----|0-----3-----1-----0----|6-----4-----3-----4----|
 "     "     "     "     "     "     "     "     "     "     "     "


Both Gtrs            1,3                       2                       4
|-----------------------|-----------------------|-----------------------|
|-----------------------|-----------------------|-----------------------|
|-----------------------|-----------------------|-----------------------|
|-----------------------|-----------------------|-----------------------|
|-----------------------|-----------------------|-----------------------|
|3-----6-----5-----3----|2-----5-----3-----2----|8-----6-----5-----6----|
|1-----4-----3-----1----|0-----3-----1-----0----|6-----4-----3-----4----|
 .     .     .     .     .     .     .     .     .     .     .     .


Both Gtrs            1,3                       2                       4
|-----------------------|-----------------------|-----------------------|
|-----------------------|-----------------------|-----------------------|
|-----------------------|-----------------------|-----------------------|
|-----------------------|-----------------------|-----------------------|
|-----------------------|-----------------------|-----------------------|
|3-----6-----5-----3----|2-----5-----3-----2----|8-----6-----5-----6----|
|1-----4-----3-----1----|0-----3-----1-----0----|6-----4-----3-----4----|
 .     .     .     .     .     .     .     .     .     .     .


Gtr 1 (Ring Out)
|---------------------------------------------------------------|
|---------------------------------------------------------------|
|---------------------------------------------------------------|
|---------------------------------------------------------------|
|---------------------------------------------------------------|
|2--------------------------------------------------------------|
|0--------------------------------------------------------------|
                                                                |
Gtr 2                                                           |
|---------------------------------------------------------------|
|---------------------------------------------------------------|
|---------------------------------------------------------------|
|---------------------------------------------------------------|
|---------------------------------------------------------------|
|---------------------------------------------------------------|
|000-000-3p1-000-000-3p1-000-3p1-000-000-3p1-000-000-3p1-000-3p1|
 ... ...     ... ...     ...     ... ...     ... ...     ...


Gtr 1
|---------------------------------------------------------------|
|---------------------------------------------------------------|
|---------------------------------------------------------------|
|---------------------------------------------------------------|
|---------------------------------------------------------------|
|2--------------------------------------------------------------|
|0--------------------------------------------------------------|
 .                                                              |
Gtr 2                                                           |
|---------------------------------------------------------------|
|---------------------------------------------------------------|
|---------------------------------------------------------5#----|
|---------------------------------------------------------------|
|---------------------------------------------------------------|
|---------------------------------------------------------------|
|000-000-3p1-000-000-3p1-000-3p1-000-000-3p1-000-000-3p1--------|
 ... ...     ... ...     ...     ... ...     ... ...


Both Gtrs                  1,2,3                               4
|-------------------------------|-------------------------------|
|-------------------------------|-------------------------------|
|-------------------------------|-------------------------------|
|-------------------------------|-------------------------------|
|-------------------------------|-------------------------------|
|-------------------------------|------------------------3*-----|
|000-000-3p1-000-000-3p1-000-3p1|000-000-3p1-000-000-3p1--------|
 ... ...     ... ...     ...     ... ...     ... ...


Both Gtrs                  1,2,3                               4
|-------------------------------|-------------------------------|
|-------------------------------|-------------------------------|
|-------------------------------|-------------------------------|
|-------------------------------|-------------------------------|
|-------------------------------|-------------------------------|
|-------------------------------|------------------------2------|
|000-000-3p1-000-000-3p1-000-3p1|000-000-3p1-000-000-3p1-0------|
 ... ...     ... ...     ...     ... ...     ... ...     .


Both Gtrs                     1,2,3                           4
|----------------------------------|---------------------------|
|----------------------------------|---------------------------|
|----------------------------------|---------------------------|
|----------------------------------|------------------9-12-8-11|
|----------------------------------|---------------------------|
|2-2-2-2-2-2-2--2-2-2-2--2-2-2-2--2|2-2-2-2-2-2-2--2-----------|
|0-0-0-0-0-0-0--0-0-0-0--0-0-0-0--0|0-0-0-0-0-0-0--0-----------|
 . . . . . . .  . . . .  . . . .  . . . . . . . .  .


Gtr 1                         1,2,3                           4
|----------------------------------|---------------------------|
|----------------------------------|---------------------------|
|----------------------------------|---------------------------|
|----------------------------------|------------------9-12-8-11|
|----------------------------------|---------------------------|
|2-2-2-2-2-2-2--2-2-2-2--2-2-2-2--2|2-2-2-2-2-2-2--2-----------|
|0-0-0-0-0-0-0--0-0-0-0--0-0-0-0--0|0-0-0-0-0-0-0--0-----------|
 . . . . . . .  . . . .  . . . .  . . . . . . . .  .           |
Gtr 2                         1,2,3                           4|
|----------------------------------|---------------------------|
|----------------------------------|---------------------------|
|----------------------------------|------------------7-11-6--9|
|----------------------------------|---------------------------|
|----------------------------------|---------------------------|
|2-2-2-2-2-2-2--2-2-2-2--2-2-2-2--2|2-2-2-2-2-2-2--2-----------|
|0-0-0-0-0-0-0--0-0-0-0--0-0-0-0--0|0-0-0-0-0-0-0--0-----------|
 . . . . . . .  . . . .  . . . .  . . . . . . . .  .


Both Gtrs (Part One)
|------------------------------------------------------------------|
|------------------------------------------------------------------| Play
|------------------------------------------------------------------| Entire
|------------------------------------------------------------------| Riff
|---------9-------7---------------------------9-----7--------------| Twice
|10p7-7-7---7-7-7---7-7-7-10-7-7-10p7-9p6-6-6---6-6---6-6-9-6-6-9p6|
|------------------------------------------------------------------|
      . .   . . .   . . .    . .          . .   . .   . .   . .

Both Gtrs (Part Two)
|----------------------------------------------------------------|
|----------------------------------------------------------------| Vibrato
|----------------------------------------------------------------| Last Note
|----------------------------------------------------------------| Second
|---------9-------7---------------------------9-------10--9--7--9| Time
|10p7-7-7---7-7-7---7-7-7-10-7-7-10p7-9p6-6-6---6-6-6------------| Through
|----------------------------------------------------------------|
      . .   . . .   . . .    . .          . .   . . .  "  "  "  "


Gtr 1
|----------------------------------|
|----------------------------------|
|----------------------------------|
|----------------------------------|
|----------------------------------|
|2-3-6-5-2-3-5-3-2-3-6-5-5----3----|
|0-1-4-3-0-1-3-1-0-1-4-3-----------|
 . . . . . . . . . . . . "    "    |
Gtr 2                              |
|----------------------------------|
|----------------------------------|
|----------------------------------|
|----------------------------------|
|----------------------------------|
|2-3-6-5-2-3-5-3-2-3-6-5-----------|
|0-1-4-3-0-1-3-1-0-1-4-3-----------|
 . . . . . . . . . . . .

Gtr 1
|----------------------------------|
|----------------------------------|
|----------------------------------|
|----------------------------------|
|----------------------------------|
|2-3-6-5-2-3-5-3-2-3-6-5-----------|
|0-1-4-3-0-1-3-1-0-1-4-3-----------|
 . . . . . . . . . . . .           |
Gtr 2                              |
|----------------------------------|
|----------------------------------|
|----------------------------------|
|----------------------------------|
|----------------------------------|
|2-3-6-5-2-3-5-3-2-3-6-5-5----3~---|
|0-1-4-3-0-1-3-1-0-1-4-3-----------|
 . . . . . . . . . . . . "    "


Both Gtrs
|----------------------------------|
|----------------------------------| x4
|----------------------------------|
|----------------------------------|
|----------------------------------|
|2-3-6-5-2-3-5-3-2-3-6-5-2---------|
|0-1-4-3-0-1-3-1-0-1-4-3-0---------|
 . . . . . . . . . . . . .


Both Gtrs
|-----|
|-----|
|-----|
|-----|
|-----|
|--2--|
|--0--|
   .

END
Добавлено: 07.04.2012
Вам также может быть интересно:
Другие материалы по этой песне:
  • Аккорды и текст

Страница создана 07.04.2012
http://primanota.ru/postmortem-promises/beast-of-the-black-forest-chords.htm
Привет, Гость.
Предлагаем пройти революционный курс по гитаре.
Подарок от PrimaNota.Ru, забирай!