PrimaNota.ru - самый крупный в мире бесплатный архив песенных текстов, аккордов, табулатур и нот


Postmen - Victim - таба, видео

Регистрация Запомнить меня
Войти через:  Facebook Google Twitter Vk Yandex Mail.ru

Postmen - Victim - таба, видео

Печатать
Просмотров: 86
Уроки эстрадного вокала в Санкт-Петербурге
(this is the acoustic version!

i hope you enjoy playing this wonderfull song

intro: (this part actually is going trough the whole song)

    Dm	      C		         G		 A
E -1-	     -0-		-3-		-0-
B -3-	     -1-		-0-		-2-
G -2-	     -0-		-0-		-2-
D -0-	     -2-		-0-		-2-
A -0-        -3-		-2-		-0-
E -0-	     -0-		-3-		-0-


Dm					C
---------------1--0--------|----------------------0----|
---------3-----3-----3-----|----------------3----------|
------2-----2--2--------2--|---------0---------0-----0-|
---0-----------------------|------2------2-------------|
---------------------------|---3-----------------------|
---------------------------|---------------------------|

  G
------------------------3--|
-----------------3---------|
------0---3----------------|
---------------------------|
---------------------------|
---3----------3------3-----|

A
------------3---1---0------|
-------2----------------2--|
-----2---2-----------------|
---------------------------|
--0------------------------|
---------------------------|

GOOD LUCK!

greetz wouter
     
Добавлено: 06.10.2013
Вам также может быть интересно:
Другие материалы по этой песне:
  • Аккорды и текст

Страница создана 06.10.2013
http://primanota.ru/postmen/victim-chords.htm
Привет, Гость.
Предлагаем пройти революционный курс по гитаре.
Подарок от PrimaNota.Ru, забирай!