PrimaNota.ru - самый крупный в мире бесплатный архив песенных текстов, аккордов, табулатур и нот


Postgirobygget - Forelska I Lrern - таба, видео

Регистрация Запомнить меня
Войти через:  Facebook Google Twitter Vk Yandex Mail.ru

Postgirobygget - Forelska I Lrern - таба, видео

Печатать
Просмотров: 85
/-------------/-------------------------/
/-------------/-------------------------/   Navn:Forelska I Lærern
/-----------2-/-4-44-2-22------2------2-/   Band:postgirobygget
/-2-22--2-222-/-4-44-2-22-2-22-2-2-22-2-/   Fra: Mathias-bend@hotmail.com
/-2-22--2-220-/-2-22-0-00-2-22-0-2-22-0-/   
/-0-00--0-00--/-----------0-00---0-00---/


Refrenget:

e/--------------------------------------------------------/e
b/--------------------------------------------------------/b
d/-4------------------------------------------------------/d
g/-4*10---11----11-9-7--7----4----11----11-9-7--7----4----/g
a/-2------11*10-11-9-7--7*10-4*10-11*10-11-9-7--7*10-4*5--/a
e/--------9-----9--7-5--5----2----9-----9--7-5--5----2----/e


Solo:


e/------------------------------/e
b/------------------------------/b
d/-------------9-1011^^-1011^^--/d
g/--------9-11------------------/g
a/---9-11-----------------------/a
e/-9----------------------------/e       

^^ Vribrator *2


Добавлено: 29.04.2012
Другие материалы по этой песне:
  • Аккорды и текст

Страница создана 29.04.2012
http://primanota.ru/postgirobygget/forelska-i-lrern-chords.htm
Привет, Гость.
Предлагаем пройти революционный курс по гитаре.
Подарок от PrimaNota.Ru, забирай!