PrimaNota.ru - самый крупный в мире бесплатный архив песенных текстов, аккордов, табулатур и нот


Possessed - Twisted Minds - текст песни, таба, видео

Регистрация Запомнить меня
Войти через:  Facebook Google Twitter Vk Yandex Mail.ru

Possessed - Twisted Minds - текст песни, таба, видео

Печатать
Просмотров: 227
Уроки эстрадного вокала в Санкт-Петербурге
Авторы музыки: Mike Torrao
Авторы текста: Mike Torrao
Band- Possessed
Song- Twisted Minds

Key
= after note = vibrato
^ after note = heavy vibrato
\ = slide down
/ = slide up
+ = tap
h = hammer
p = pull
n = natural harmonic
s = pinching harmonic (squeal)
* = tremolo pick
t = trill
b = bend
|-3-| = triplet

n number above the tab = play the first part then the first finishing part
			 play the first part a second time and then play the second finishing part
			 etc.

Intro

E -------------------------------------------------------------------------------------------|
B -------------------------------------------------------------------------------------------|
G -2-2---8----2-2-------2-2---8----2-2---------2-2---8----2-2-------2-2---8----2-2-----------|
D -2-2---8----2-2-------2-2---8----2-2---4/----2-2---8----2-2-------2-2---8----2-2---4--5--7-|
A -0-0---6----0-0-------0-0---6----0-0---4/----0-0---6----0-0-------0-0---6----0-0---4--5--7-|
E ---------------------------------------2/------------------------------------------2--3--5-|

Riff 1

E ---------------------------------------|
B ---------------------------------------|
G -------------5-3--3-------------5-3--7-|
D -------------5-3--3-------------5-3--7-|
A -00-00-00-00--------00-00-00-00--------|
E ---------------------------------------|

Riff 2

E -------------------------------------------------------------------------------------------------------------------------|
B -------------------------------------------------------------------------------------------------------------------------|
G -------------8-7-5-------------8-7-5-------------8-7-5-7---5-7----------------8-7-5-------------8-7-5-------------8-7-5--|
D -------------8-7-5-------------8-7-5-------------8-7-5-7---5-7----------------8-7-5-------------8-7-5-------------8-7-5--|
A -77-77-77-77-6-5-3-77-77-77-77-6-5-3-77-77-77-77-6-5-3-5---3-5----77-77-77-77-6-5-3-77-77-77-77-6-5-3-77-77-77-77-6-5-3--|
E -------------------------------------------------------------------------------------------------------------------------|
           |-3-|         |-3-|           |-3-|            |-3-|          |-3-|            |-3------------------------------|

Riff 2A

E -------------------------------------------------------------------------------------------------------------------------|
B -------------------------------------------------------------------------------------------------------------------------|
G -------------8-7-5-------------8-7-5-------------8-7-5-7---5-7----------------8-7-5-------------8-7-5-------------8-7-5--|
D -------------8-7-5-------------8-7-5-------------8-7-5-7---5-7----------------8-7-5-------------8-7-5-------------8-7-5--|
A -77-77-77-77-6-5-3-77-77-77-77-6-5-3-77-77-77-77-6-5-3-5---3-5----77-77-77-77-6-5-3-77-77-77-77-6-5-3-77-77-77-77-6-5-3--|
E -------------------------------------------------------------------------------------------------------------------------|
           |-3-|         |-3-|           |-3-|            |-3-|          |-3-|            |-3------------------------------|

E ------------|
B ------------|
G -2----7--3--|
D -2----7--3--|
A -0----5--1--|
E ------------|

Riff 3

E -------------------------------------------------------------------------------------------|
B -------------------------------------------------------------------------------------------|
G -------------------------------------------5---------------------------------------5---3---|
D -------------------------------5-5-3-2-----5---------------------------------------5---3---|
A -0-0-0-3-0-0-0-0-0-5-0-0-0-0-0---------0-0-3---0-0-0-3-0-0-0-0-0-5-0-0-0-0-0-3-0-0-3---1---|
E -------------------------------------------------------------------------------------------|

Riff 4

E --------------------------------------------|
B --------------------------------------------|
G -------5---------8---------7------------5---|
D -------5---------8---------7------------5---|
A -0-0-0-3---0-0-0-6---0-0-0-5------------3---|
E --------------------------------------------|

Riff 5A

E -------------------------------------------------------------------------------------------|
B -------------------------------------------------------------------------------------------|
G -------------------------------------------------------------------------------------------|
D -------------------------------------------------------------------------------------------|
A -00-00-00-00-00-00-00-00-7p-0-5p-0-7p-0-3-2-3-00-00-00-00-00-00-00-00-7p-0-5p-0-7p-0-3-2-3-|
E -------------------------------------------------------------------------------------------|

Riff 5

E -------------------------------------------------------------------------------------------|
B -------------------------------------------------------------------------------------------|
G -------------------------------------------------------------------------------------------|
D -------------------------------------------------------------------------------------------|
A -00-00-00-00-00-00-00-00-7p-0-5p-0-7p-0-3-2-3-00-00-00-00-00-00-00-00-7p-0-5p-0-7p-0-3-2-3-|
E -------------------------------------------------------------------------------------------|

E -------------------------------------------------|
B -------------------------------------------------|
G -------------------------------------------------|
D -55-55-55-55-44-44-44-44-------------------------|
A -33-33-33-33-22-22-22-22-55-55-55-55-44-44-44-44-|
E -------------------------33-33-33-33-22-22-22-22-|

Riff 6

E ----------------------------------------------------------------------------------------|
B ----------------------------------------------------------------------------------------|
G -2-------2-------2-------5----2-------2-------2-------3----2-------2-------2-------7----|
D -2-------2-------2-------5----2-------2-------2-------3----2-------2-------2-------7----|
A -0-0-0-0-0-0-0-0-0-0-0-0-3----0-0-0-0-0-0-0-0-0-0-0-0-1----0-0-0-0-0-0-0-0-0-0-0-0-5----|
E ----------------------------------------------------------------------------------------|

E ---------------------------|
B ---------------------------|
G ---------5------------3----|
D ---------5------------3----|
A -0-0-0-0-3----0-0-0-0-1----|
E ---------------------------|

Riff 7

E ---------------------------------------------------------------------------------------|
B ---------------------------------------------------------------------------------------|
G -------3-2---------3-2---------3-2---5------------3-2---------3-2---------3-2----------|
D -------3-2---------3-2---------3-2---5------------3-2---------3-2---------3-2---5------|
A -0-0-0-1-0-0-0-0-0-1-0-0-0-0-0-1-0-0-3------0-0-0-1-0-0-0-0-0-1-0-0-0-0-0-1-0-0-5------|
E --------------------------------------------------------------------------------3------|

E ---------------------------------------------------------------------------------------|
B ---------------------------------------------------------------------------------------|
G -------3-2---------3-2---------3-2---5------------3-2---------3-2---------3-2----------|
D -------3-2---------3-2---------3-2---5------------3-2---------3-2---------3-2---5------|
A -0-0-0-1-0-0-0-0-0-1-0-0-0-0-0-1-0-0-3------0-0-0-1-0-0-0-0-0-1-0-0-0-0-0-1-0-0-5------|
E --------------------------------------------------------------------------------3------|

E --------------------|
B --------------------|
G --------------------|
D -------3--------5---|
A -------3--------5---|
E -0-0-0-1--0-0-0-3---|

Riff 7A

E ---------------------------------------------------------------------------------------|
B ---------------------------------------------------------------------------------------|
G -------3-2---------3-2---------3-2---5------------3-2---------3-2---------3-2----------|
D -------3-2---------3-2---------3-2---5------------3-2---------3-2---------3-2---5------|
A -0-0-0-1-0-0-0-0-0-1-0-0-0-0-0-1-0-0-3------0-0-0-1-0-0-0-0-0-1-0-0-0-0-0-1-0-0-5------|
E --------------------------------------------------------------------------------3------|

E ---------------------------------------------------------------------------------------|
B ---------------------------------------------------------------------------------------|
G -------3-2---------3-2---------3-2---5------------3-2---------3-2---------3-2----------|
D -------3-2---------3-2---------3-2---5------------3-2---------3-2---------3-2---5------|
A -0-0-0-1-0-0-0-0-0-1-0-0-0-0-0-1-0-0-3------0-0-0-1-0-0-0-0-0-1-0-0-0-0-0-1-0-0-5------|
E --------------------------------------------------------------------------------3------|

E ---------------------- ---|
B ---------------------- ---|
G ---------------------- ---|
D -------3--------5---7- -7-|
A -------3--------5---7- -7-|
E -0-0-0-1--0-0-0-3---5- -5-|

Order

Intro x 1
Riff 1 x 4
Riff 2 x 1
Riff 1 x 4
Riff 2A x 1
Riff 3 x 4
Riff 4 x 4
Riff 3 x 4
Riff 4 x 4
Riff 5A x 1
Riff 5 x 4
Riff 6 x 1
Solo over Riff 6 x 4
Riff 1 x 4
Riff 2 x 1
Riff 1 x 4
Riff 2 x 1
Riff 7 x 1
Solo over Riff 7 x 2
Solo over Riff 7A x 1
Добавлено: 18.03.2012
Вам также может быть интересно:
Другие материалы по этой песне:

Страница создана 09.03.2012
http://primanota.ru/possessed/twisted-minds-chords.htm
Привет, Гость.
Предлагаем пройти революционный курс по гитаре.
Подарок от PrimaNota.Ru, забирай!