PrimaNota.ru - самый крупный в мире бесплатный архив песенных текстов, аккордов, табулатур и нот


Posse - Afraid - аккорды и текст, видео

Регистрация Запомнить меня
Войти через:  Facebook Google Twitter Vk Yandex Mail.ru

Posse - Afraid - аккорды и текст, видео

Печатать
Просмотров: 57
Afraid
Posse
-------------------------------------------------------------------------------
                             Afraid - Posse
-------------------------------------------------------------------------------

Tuning: Standard

    G     C      G/D   C/G
e|---------------10----3-----------------------------------------------------|
B|---------------12----5-----------------------------------------------------|
G|--4-----9------12----5-----------------------------------------------------|
D|--5-----10-----12----5-----------------------------------------------------|
A|--5-----10-----10----3-----------------------------------------------------|
E|--3-----8------10----3-----------------------------------------------------|

Opening Riff

e|---------------------------------------------------------------------------|
B|---------------------------------------------------------------------------|
G|---------------------------------------------------------------------------|
D|------12-14-12-------------------------------------------------------------|
A|---------------14-12-14----------------------------------------------------|
E|--12-----------------------------------------------------------------------|

G C 4x

G           C                                 G
I might forget about every useful thing you do
             C
I might ignore you when you want to hang around
G/D    C/G
I will agree when I agree, I say
G    C               G    C
       Don't be afraid

G        C                                       G
I put my hand out to my right and I felt your chest
       C                                 G/D
Then I covered up my eyes and saw your face
            C/G                             G     C
We will do everything we dreamt about someday
              G          C
Don't be afraid

G/D          C/G
I just can't think about it any other way

Solo

G C 4x
G/D C/G
G C 4x

G          C                                 G
I might forget about every useful thing you do
           C                                  G/D
I might ignore you when you want to fuck around
        C/G                   G
I will agree when I agree, I say
C                 G   C
    Don't be afraid
G/D          C/G
I just won't think about it any other way

G C 4x  end on G*
Добавлено: 10.08.2015
Вам также может быть интересно:
Другие материалы по этой песне:
  • Аккорды и текст

Страница создана 10.08.2015
http://primanota.ru/posse/afraid-chords.htm
Привет, Гость.
Предлагаем пройти революционный курс по гитаре.
Подарок от PrimaNota.Ru, забирай!