PrimaNota.ru - самый крупный в мире бесплатный архив песенных текстов, аккордов, табулатур и нот


Portugal The Man - Out And In And In And Out - таба, видео

Регистрация Запомнить меня
Войти через:  Facebook Google Twitter Vk Yandex Mail.ru

Portugal The Man - Out And In And In And Out - таба, видео

Печатать
Просмотров: 95
Уроки эстрадного вокала в Санкт-Петербурге
-------------------------------------------------------------------------------
                             "Out and In and In and Out" - Portugal. The Man
-------------------------------------------------------------------------------
Tabbed by: Kyle Bryan
Email: kylepianoman@gmail.com





Tuning:Standard

Verse

e|-3-3-3-3-3-3-3-33---7-7-7-7-7-7-7-77---------------------------------------|
B|-2-2-2-2-2-2-2-22---7-7-7-7-7-7-7-77--12-12-12-12-12-12-12-12-12-----------|
G|-3-3-3-3-3-3-3-33---5-5-5-5-5-5-5-55--10-10-10-10-10-10-10-10-10-----------|
D|-0-0-0-0-0-0-0-00---7-7-7-7-7-7-7-77--12-12-12-12-12-12-12-12-12-----------|
A|--------------------0-0-0-0-0-0-0-00---0--0--0--0--0--0--0--0--0-----------|
E|--------------------5-5-5-5-5-5-5-55--10-10-10-10-10-10-10-10-10-----------|

e|---------------------------------------------------------------------------|
B|-x-7-7-7-7-7-7-7-7/9-9-9-9-9-9-9-------------------------------------------|
G|-x-5-5-5-5-5-5-5-5/7-7-7-7-7-7-7-------------------------------------------|
D|-x-7-7-7-7-7-7-7-7/9-9-9-9-9-9-9-------------------------------------------|
A|---0-0-0-0-0-0-0-0-0-0-0-0-0-0-0-------------------------------------------|
E|---5-5-5-5-5-5-5-5---------------------------------------------------------|


Solo
e|-----------------------------------------------------------------------------------------------|
B|---3----------6~--------15-------15---15----15-15-15------15--15--15--15--15--15--15--15\------|
G|---5b7----7-5-----------17b(19)-(19)-(19)--(19)(19)(19)--(19)(19)(19)(19)(19)(19)(19)(19)\-----|
D|-----------------------------------------------------------------------------------------------|
A|-----------------------------------------------------------------------------------------------|
E|-----------------------------------------------------------------------------------------------|


e|----------17---------17----------------------17------------15-14-15-14-15-14--------------------|
B|-15-18-15---15-18-15----15--15~-----15-18-15----15-18-15---------------------15-13---15-15-15-15|
G|------------------------------------------------------------------------------------------------|
D|------------------------------------------------------------------------------------------------|
A|------------------------------------------------------------------------------------------------|
E|------------------------------------------------------------------------------------------------|

e|--------------------------------------------------------------------------------------|
B|-15-16-15-13-15-13---------------15----15---------------------------------------------|
G|-------------------15-17-15-14---17b19----17-14-------------------10-10-10-10---------|
D|------------------------------------------------17-15-------------12-12-12-12---12~---|
A|------------------------------------------------------17-15-17~-----------------------|
E|--------------------------------------------------------------------------------------|

e|----------------------------------10------------------------------------|
B|-------------------------------------13-10------------------------------|
G|--------10--------10------10b12br----------12-10-----10b12br------------|
D|-12--10-----12-10----12~--------------------------12---------12-10-12~--|
A|------------------------------------------------------------------------|
E|------------------------------------------------------------------------|




************************************

| /   slide up
| \   slide down
| h   hammer-on
| p   pull-off
| ~   vibrato
| +   harmonic
| x   Mute note
| b   Bend
| pb  Pre-bend
| br  Bend release
| pbr Pre-bend release
| brb Bend release bend

************************************
Добавлено: 12.07.2012
Другие материалы по этой песне:
  • Аккорды и текст

Страница создана 12.07.2012
http://primanota.ru/portugal-the-man/out-and-in-and-in-and-out-chords.htm
Привет, Гость.
Предлагаем пройти революционный курс по гитаре.
Подарок от PrimaNota.Ru, забирай!