PrimaNota.ru - самый крупный в мире бесплатный архив песенных текстов, аккордов, табулатур и нот


Portugal The Man - Colors - аккорды и текст, видео

Регистрация Запомнить меня
Войти через:  Facebook Google Twitter Vk Yandex Mail.ru

Portugal The Man - Colors - аккорды и текст, видео

Печатать
Просмотров: 138
Colors
Portugal The Man
-------------------------------------------------------------------------------
                             COLORS - Portugal. the Man
-------------------------------------------------------------------------------
   G  Em9 Bm9  C  Am9  
e|-3---0---2-----0--0-------|
B|-0---0---3-----1--1-------|
G|-0---0---4-----0--2-------|
D|-0---2---4-----2--2-------|
A|-2---2---2-----3--0-------|
E|-3---0---------3----------|

  G         Bm9      Em9
  All the needy still need
  C        Am9       Em9
  All the losers still lose
  G         Bm9           Em9
  All the peachers still preach
  C        Am9       Em9 
  They ain't bringin' no change

 (same for other verses and chorus)


BRIDGE
  
   Em9       G      Bm9
   Bits and Bits of care
   C             G
   Bit by Bit away
   Em9       G     Bm9
   Grow as people grow
   C               G
   Glow as people glow
       
     Amin chord for a while then back to chorus

      
                        
Добавлено: 07.03.2012
Другие материалы по этой песне:
  • Аккорды и текст

Страница создана 07.03.2012
http://primanota.ru/portugal-the-man/colors-chords.htm
Привет, Гость.
Предлагаем пройти революционный курс по гитаре.
Подарок от PrimaNota.Ru, забирай!