PrimaNota.ru - самый крупный в мире бесплатный архив песенных текстов, аккордов, табулатур и нот


Portugal The Man - 1000 Years - таба, видео

Регистрация Запомнить меня
Войти через:  Facebook Google Twitter Vk Yandex Mail.ru

Portugal The Man - 1000 Years - таба, видео

Печатать
Просмотров: 116
-------------------------------------------------------------------------------
                             1000 Years -  Portugal. The Man
-------------------------------------------------------------------------------
Tabbed by: jb88

Tuning: Standard

Strumming pattern is just ddddddd

    E               F#m                    E               B
e|--7-7-7-7-7-7-7---9--9--9--9--9--9--9----7-7-7-7-7-7-7---------------------|
B|--8-8-8-8-8-8-8---10-10-10-10-10-10-10---8-8-8-8-8-8-8---7-7-7-7-7-7-7-----|
G|--9-9-9-9-9-9-9---11-11-11-11-11-11-11---9-9-9-9-9-9-9---8-8-8-8-8-8-8-----| x2
D|---------------------------------------------------------9-9-9-9-9-9-9-----|
A|---------------------------------------------------------------------------|
E|---------------------------------------------------------------------------|


Pre-chorus: For the muted strums, go down-up, rest are just down strums
    
    E
e|---------------------------------------------------------------------------|
B|---------------------------------------------------------------------------|
G|--9-9-9-9-9-9-9-xx-9-9-9-9-9-9-9-------------------------------------------|
D|--9-9-9-9-9-9-9-xx-9-9-9-9-9-9-9-------------------------------------------|
A|--7-7-7-7-7-7-7-xx-7-7-7-7-7-7-7-------------------------------------------|
E|---------------------------------------------------------------------------|

Chorus:

    E                               B
e|---------------------------------------------------------------------------|
B|---------------------------------------------------------------------------|
G|--9-9-9-9-9-9-9---9-9-9-9-9-9-9---4-4-4-4-4-4-4-4--------------------------|
D|--9-9-9-9-9-9-9---9-9-9-9-9-9-9---4-4-4-4-4-4-4-4--------------------------|
A|--7-7-7-7-7-7-7---7-7-7-7-7-7-7---2-2-2-2-2-2-2-2--------------------------|
E|---------------------------------------------------------------------------|
            We'll wait 1000 years   until the end of time

             G                       A
e|---------------------------------------------------------------------------|
B|---------------------------------------------------------------------------|
G|---------------------------------------------------------------------------|
D|-----------5-5-5-5-5-5-5-5---------7-7-7-7-7-7-7-7-------------------------|
A|-----------5-5-5-5-5-5-5-5---------7-7-7-7-7-7-7-7-------------------------|
E|-----------3-3-3-3-3-3-3-3---------5-5-5-5-5-5-5-5-------------------------|
  We'll wait 1000 more dressed up in gold and white

                  E                        B
e|---------------------------------------------------------------------------|
B|---------------------------------------------------------------------------|
G|----------------9-9-9-9-9-9-9------------4-4-4-4-4-4-4-4-------------------|
D|----------------9-9-9-9-9-9-9------------4-4-4-4-4-4-4-4-------------------|
A|----------------7-7-7-7-7-7-7------------2-2-2-2-2-2-2-2-------------------|
E|---------------------------------------------------------------------------|
  We'll climb the mountaintops to find what's in the sky

                    G                            A
e|---------------------------------------------------------------------------|
B|---------------------------------------------------------------------------|
G|---------------------------------------------------------------------------|
D|------------------5-5-5-5-5-5-5-5--------------7-7-7-7-7-7-7-7-------------|
A|------------------5-5-5-5-5-5-5-5--------------7-7-7-7-7-7-7-7-------------|
E|------------------3-3-3-3-3-3-3-3--------------5-5-5-5-5-5-5-5-------------|
  We'll dig through mountainsides to find what's deep inside


Lyrics:
E           F#m       E
first i stand then i die
     B              E
i became all mankind
       F#m             E
as i drip from mine eyes
           B                 E
i washed away to a smaller size

           E                    B
we'll wait 1000 years until the end of time
            G                      A
we'll wait 1000 more dressed up in gold and white
                E                           B
we'll climb the mountain sides to find what's in the sky
                  G                            A
we'll dig through mountain sides to find what's deep inside

if we see what we need we'll find
it don't make who we be
if we try would we find
that what we need is more than time

we'll wait 1000 years until the end of time
we'll wait 1000 more dressed up in gold and white
we'll climb the mountain sides to find what's in the sky
we'll dig through mountain sides to find what's deep inside

i've got everything you need
the friends you help need everything
what you need, what you need
you can help out all your friends in need
but the friends you help need everything
what you need, what you need

first you stand then you crawl
then you sleep to be reborn

we'll wait 1000 years until the end of time
we'll wait 1000 more dressed up in gold and white
we'll climb the mountain sides to find what's in the sky
we'll dig through mountain sides to find what's deep inside

you can help out all your friends in need
but the friends you help need everything
what you need, what you need
i've got everything you need
the friends you help need everything
what you need, what you need
Добавлено: 01.09.2015
Вам также может быть интересно:
Другие материалы по этой песне:
  • Аккорды и текст

Страница создана 01.09.2015
http://primanota.ru/portugal-the-man/1000-years-chords.htm
Привет, Гость.
Предлагаем пройти революционный курс по гитаре.
Подарок от PrimaNota.Ru, забирай!