PrimaNota.ru - самый крупный в мире бесплатный архив песенных текстов, аккордов, табулатур и нот


Portland - Simple Shade Of Simple Blue - таба, видео

Регистрация Запомнить меня
Войти через:  Facebook Google Twitter Vk Yandex Mail.ru

Portland - Simple Shade Of Simple Blue - таба, видео

Печатать
Просмотров: 73
-------------------------------------------------------------------------------
                             Simple Shade of Simple Blue - Portland
-------------------------------------------------------------------------------
Tabbed by: Tim Lundin III
E-mail: timlundin33@gmail.com

Tuning: Drop D?

Portland is a sweet band from Indiana. I believe they're broken up, but they had an EP and a single/song thing.
All of their stuff was rad. Now, the tuning might be wrong, but it sounds pretty good, if you have any 
corrections please do so in the comments. If you have any questions ask.

e|--------------------------------------xx-------------------------------------|
B|--------------------------------------xx-------------------------------------|
G|--------------------------------------xx-------------------------------------|
D|--9/11-12\11---7/9 6\7----------------xx-------------------------------------|
A|--------------------------------------xx-------------------------------------|
E|0------------0------------------------xx-------------------------------------|
Full band build up               fill in full band version
e|-----------------------------------------------------------------------------|
B|-----------------------------------------------------------------------------|
G|-----------------------------------------------------------------------------|
D|-0----then underneath play the riff up above.--------------------------------|
A|-0---------------------------------------------------------------------------|
E|-0---------------------------------------------------------------------------|



************************************

| /   slide up
| \   slide down
| h   hammer-on
| p   pull-off
| ~   vibrato
| +   harmonic
| x   Mute note
| b   Bend
| pb  Pre-bend
| br  Bend release
| pbr Pre-bend release
| brb Bend release bend

************************************
Добавлено: 02.01.2016
Другие материалы по этой песне:
  • Аккорды и текст

Страница создана 02.01.2016
http://primanota.ru/portland/simple-shade-of-simple-blue-chords.htm
Привет, Гость.
Предлагаем пройти революционный курс по гитаре.
Подарок от PrimaNota.Ru, забирай!