PrimaNota.ru - самый крупный в мире бесплатный архив песенных текстов, аккордов, табулатур и нот


Portishead - Half Day Closing Live - бас-таба, видео

Регистрация Запомнить меня
Войти через:  Facebook Google Twitter Vk Yandex Mail.ru

Portishead - Half Day Closing Live - бас-таба, видео

Печатать
Просмотров: 142
Half Day Closing Live version from the Roseland NYC Live album

Intro
G|------------------------------------------------------------
D|------------------------------------------------------------
A|--1--1--/4--4-----------------------------------------------
E|---------------3--3--2--2-----1--1--5--5--0--0--3--3-2-3-1--


G|------------------------------------------------------------
D|------------------------------------------------------------
A|--1--1--/4--4-----------------------------------------------
E|---------------3--3--2--2-4-2-1--1--5--5--0--0--3--3-2-3-1--

        (In the days, the golden days..)
G|------------------------------------------------------------
D|------------------------------------------------------------
A|--1--1--/4--4-----------------------------------------------
E|---------------3--3--2--2--1--1-2-3-5--5--0--0--3--3-2-3-1--

        (Through the times of lasting love..)
G|------------------------------------------------------------
D|------------------------------------------------------------
A|--1--1--/4--4-----------------------------------------------
E|---------------3--3--2--2--1--1-2-3-5--5--0--0--3--3-2-3-1--

Chorus
        
        (Dreams and belief have gone, Time, life itself goes on)
G|------------------------------------------------------------
D|------------------------------------------------------------
A|--1--1--/4--4-----------------------------------------------
E|---------------3--3--2--2-4-2-1--1--5--5--0--0--2--2---2--2-

        (Far beyond the shrinking skies..)
G|------------------------------------------------------------
D|------------------------------------------------------------
A|--1--1--/4--4-----------------------------------------------
E|---------------3--3--2--2--1--1-2-3-5--5--0--0--3--3-2-3-1--

        (Underneath the fading sun..)
G|-------------------------------------------------------------
D|-------------------------------------------------------------
A|--1--1--/4--4------------------------------------------------
E|---------------3--3--2--2--1--1-2-3-5--5--0--0--2---2---2---2
        
        (Dreams and belief have gone, Time, life itself goes on)
G|-------------------------------------------------------------
D|-------------------------------------------------------------
A|--1--1--/4--4------------------------------------------------
E|---------------3--3--2--2-4-2-1--1--5--5--0--0--3--3-2-3-1---

G|-------------------------------------------------------------
D|-------------------------------------------------------------
A|--1--1--/4--4------------------------------------------------
E|---------------3--3--2--2--1--1-2-3-5--5--0--0--2---2---2---2

        (Dreams and belief have gone, Time, life itself goes on)
G|-------------------------------------------------------------
D|-------------------------------------------------------------
A|--1--1--/4--4------------------------------------------------
E|---------------3--3--2--2-4-2-1--1--5--5--0--0--3--3-2-3-1---

G|-------------------------------------------------------------
D|-------------------------------------------------------------
A|--1--1--/4--4------------------------------------------------
E|---------------3--3--2--2-4-2-1--1--5--5--0--0--3(x16)-------

When I say (x16) I mean play the 3rd fret 16 times not the whole bar 16 times.
Добавлено: 17.09.2015
Другие материалы по этой песне:
  • Аккорды и текст

Страница создана 17.09.2015
http://primanota.ru/portishead/half-day-closing-live-chords.htm
Привет, Гость.
Предлагаем пройти революционный курс по гитаре.
Подарок от PrimaNota.Ru, забирай!