PrimaNota.ru - самый крупный в мире бесплатный архив песенных текстов, аккордов, табулатур и нот


Portico Quartet - Prickly Pear - таба, видео

Регистрация Запомнить меня
Войти через:  Facebook Google Twitter Vk Yandex Mail.ru

Portico Quartet - Prickly Pear - таба, видео

Печатать
Просмотров: 39
-----------------------------------------------------------------
                 Prickly Pear - Portico Quartet
-----------------------------------------------------------------

Tabbed By : Aeonoptic
e-mail: aeonoptic@gmail.com

THIS IS THE HIDDEN TRACK THAT STARTS AT 6:15 IN 'POMPIDOU'.

Tuning: EADGBe

  Eb                                          Fm
E|6----6----|6----6----|6----6----|6----6----|8-----8-----|8-----8-----|8-----8-----|8-----8-----|
B|--8----8--|--8----8--|--8----8--|--8----8--|--9-----9---|--9-----9---|--------9---|--------9---|
G|--8------8|--8------8|--8------8|--8------8|--10------10|--10------10|--10------10|--10------10|
D|----------|----------|----------|----------|------------|------------|------------|------------|
A|----------|----------|----------|----------|------------|------------|------------|------------|
E|----------|----------|----------|----------|------------|------------|------------|------------|

  Eb                                          Fm
E|6----6----|6----6----|6----6----|6----6----|8-----8-----|8-----8-----|8-----8-----|8-----8-----|
B|--8----8--|--8----8--|--8----8--|--8----8--|--9-----9---|--9-----9---|--------9---|--------9---|
G|--8------8|--8------8|--8------8|--8------8|--10------10|--10------10|--10------10|--10------10|
D|----------|----------|----------|----------|------------|------------|------------|------------|
A|----------|----------|----------|----------|------------|------------|------------|------------|
E|----------|----------|----------|----------|------------|------------|------------|------------|

  Eb                                                  Fm                                       Cm7
E|6---6--8-6---6|6---6--8-6---6|6----6----|6----6----|8---6-8--6---6|8---6-8--6---6|8--11-----|8-----8----|
B|--8--------8--|--8--------8--|--8----8--|--8----8--|--8--------8--|--8--------8--|-------8--|---8----8--|
G|--------------|--------------|---------8|---------8|--------------|--------------|---------8|---8------8|
D|--------------|--------------|----------|----------|--------------|--------------|----------|-----------|
A|--------------|--------------|----------|----------|--------------|--------------|----------|-----------|
E|--------------|--------------|----------|----------|--------------|--------------|----------|-----------|

  Eb                                                  Fm                                         Cm7
E|6---6--8-6---6|6---6--8-6---6|6----6----|6----6----|8---6-8--6---6|8---6-8--6---6|8--11--8----|8----8----|
B|--8--------8--|--8--------8--|--8----8--|--8----8--|--8--------8--|--8--------8--|---------8--|--8----8--|
G|--------------|--------------|---------8|---------8|--------------|--------------|-----------8|---------8|
D|--------------|--------------|----------|----------|--------------|--------------|------------|----------|
A|--------------|--------------|----------|----------|--------------|--------------|------------|----------|
E|--------------|--------------|----------|----------|--------------|--------------|------------|----------|

Over same harmony

Sax melody
E|14/15-15~|15-14-15-16----15~~|15-16-18-18~~|16-15-16--15----15~~|14/15-15~|15-14-15-16---|15-----|
B|---------|------------18-----|-------------|-------------18-----|---------|------------18|---15~~|
G|---------|-------------------|-------------|--------------------|---------|--------------|-------|
D|---------|-------------------|-------------|--------------------|---------|--------------|-------|
A|---------|-------------------|-------------|--------------------|---------|--------------|-------|
E|---------|-------------------|-------------|--------------------|---------|--------------|-------|

E|-----------------|----------|14/15-15~|15-14-15-16----15-15~~|15-16-18-18~~|16-15-16--15----15~~|13/15-15~|
B|---15--16\15/16~~|15h16p15~~|---------|------------18--------|-------------|-------------18-----|---------|
G|17---------------|----------|---------|----------------------|-------------|--------------------|---------|
D|-----------------|----------|---------|----------------------|-------------|--------------------|---------|
A|-----------------|----------|---------|----------------------|-------------|--------------------|---------|
E|-----------------|----------|---------|----------------------|-------------|--------------------|---------|

E|-----------------|----------|
B|---15--16\15/16~~|15h16p15~~|
G|17---------------|----------|
D|-----------------|----------|
A|-----------------|----------|
E|-----------------|----------|

  Sax solo 1
E|16-18-16-15----15------|-----------------------|-----------------------|---------15------------|
B|------------18----18-16|15-16-15---------------|-----------------------|15-16-18----18-16-15-16|
G|-----------------------|---------17-15---------|------------------15-17|-----------------------|
D|-----------------------|---------------18-17-15|17-15----15-17-18------|-----------------------|
A|-----------------------|-----------------------|------18---------------|-----------------------|
E|-----------------------|-----------------------|-----------------------|-----------------------|

E|--------------------|---15---------------|15~~~|18-18-18-18-18-18|18-18-18--18-16-15----|
B|18-16-18~~--16-15-16|18----18-16-15-16-18|-----|-----------------|-------------------18~|
G|--------------------|--------------------|-----|-----------------|----------------------|
D|--------------------|--------------------|-----|-----------------|----------------------|
A|--------------------|--------------------|-----|-----------------|----------------------|
E|--------------------|--------------------|-----|-----------------|----------------------|

E|-------------13/15~~|15------------------14|
B|16-18-16--18--------|---18-16--15--16-18---|
G|--------------------|----------------------|
D|--------------------|----------------------|
A|--------------------|----------------------|
E|--------------------|----------------------|

Melody
Hang drum solo
Melody
Bass solo

Sax solo 2
E|15-16-15----15--15|15-16-15----15--15|15-16-15----15|---------------------|----------------------|
B|---------18-------|---------18-------|---------18---|16-15-15--15-16-15---|15-15---15-16-15----15|
G|------------------|------------------|--------------|-------------------17|-----------------17---|
D|------------------|------------------|--------------|---------------------|----------------------|
A|------------------|------------------|--------------|---------------------|----------------------|
E|------------------|------------------|--------------|---------------------|----------------------|

E|------------------|16-18--16-15----15-15~|15-16-15-----15-------------|------------15---------------|
B|16-18-16-15h16-15~|-------------18-------|----------18----18--15-16-15|---15-16-18----18-16-15h16-15|
G|------------------|----------------------|----------------------------|17---------------------------|
D|------------------|----------------------|----------------------------|-----------------------------|
A|------------------|----------------------|----------------------------|-----------------------------|
E|------------------|----------------------|----------------------------|-----------------------------|

E|------------15-18-18|16-15-16-18~~--18|18-15-----18p15-----18-15---|18p15-----18-15---|16-15----16p15-----|
B|---15-16-18---------|-----------------|------16--------16--------16|------16--------16|------16-------16--|
G|17------------------|-----------------|----------------------------|------------------|-------------------|
D|--------------------|-----------------|----------------------------|------------------|-------------------|
A|--------------------|-----------------|----------------------------|------------------|-------------------|
E|--------------------|-----------------|----------------------------|------------------|-------------------|

E|16-15-----16p15-----16-15---|15--------15--------15------|---------15------|15--------15\13-----15------|
B|------16--------16--------16|---16--------16--------16---|18-16-------16---|---16------------------16---|
G|----------------------------|------17--------17--------17|------17-------17|------17--------17--------17|
D|----------------------------|----------------------------|-----------------|----------------------------|
A|----------------------------|----------------------------|-----------------|----------------------------|
E|----------------------------|----------------------------|-----------------|----------------------------|

E|15\13-----15------|--------------------------|-----------------|15-------15-------15------|
B|-------------16---|18-16----18p16----18-16---|18p16----18-16---|---16-------18-------16---|
G|------17--------17|------17-------17-------17|------17-------17|------17-------17-------17|
D|------------------|--------------------------|-----------------|--------------------------|
A|------------------|--------------------------|-----------------|--------------------------|
E|------------------|--------------------------|-----------------|--------------------------|

E|15\13----15------|18-15----18p15----18-15---|18p15----18-15---|18-15----18p15----18-15---|
B|------------16---|------16-------16-------16|------16-------16|------16-------16-------16|
G|------17-------17|--------------------------|-----------------|--------------------------|
D|-----------------|--------------------------|-----------------|--------------------------|
A|-----------------|--------------------------|-----------------|--------------------------|
E|-----------------|--------------------------|-----------------|--------------------------|

E|18p15----18-16-15---------|15---------------------------|------------------------------15---|
B|------16----------18-16-18|---18-16-15-16-15------------|---------------------15-16-18----18|
G|--------------------------|------------------17-15------|---------------15-17---------------|
D|--------------------------|------------------------18-17|15----15-17-18---------------------|
A|--------------------------|-----------------------------|---18------------------------------|
E|--------------------------|-----------------------------|-----------------------------------|

E|------------------------15------|-------|------15----------------------|----------------------------------|
B|16-15-16-18-16-15-16-18----18-16|15-16~~|16-18----18-16-16/18--18\16-15|---16-15tr16----------------------|
G|--------------------------------|-------|------------------------------|17-----------17--15---------------|
D|--------------------------------|-------|------------------------------|--------------------17-15----15-17|
A|--------------------------------|-------|------------------------------|--------------------------18------|
E|--------------------------------|-------|------------------------------|----------------------------------|

E|------------------------15|------------|---------------------|------------------15----------------|
B|---------------15-16-18---|18-16--15-16|15h16p15-------------|---------15h16h18----18--16-15------|
G|---------15-17------------|------------|---------17----------|---15h17-----------------------15---|
D|15-17-18------------------|------------|------------17-15tr17|17----------------------------------|
A|--------------------------|------------|---------------------|----------------------------------17|
E|--------------------------|------------|---------------------|------------------------------------|

E|-------------------------------------|------15|
B|------------16-15~-------------------|16-18---|
G|---15h16h17---------17-15----15-17/19|--------|
D|17------------------------17---------|--------|
A|-------------------------------------|--------|
E|-------------------------------------|--------|

E|14/15-15~|15-14-15-16----15-15~~|15-16-18-18~~|16-15-16--15----15~~|14/15-15~|15-14-15-16---|15--------|
B|---------|------------18--------|-------------|-------------18-----|---------|------------18|---15-15~~|
G|---------|----------------------|-------------|--------------------|---------|--------------|----------|
D|---------|----------------------|-------------|--------------------|---------|--------------|----------|
A|---------|----------------------|-------------|--------------------|---------|--------------|----------|
E|---------|----------------------|-------------|--------------------|---------|--------------|----------|

E|----------------|----------|------------|---------------|
B|---15-16\15/16~~|15h16p15~~|-------15~~~|---------------|
G|17--------------|----------|17----------|15~------------|
D|----------------|----------|---17-------|---------------|
A|----------------|----------|------------|----18-17~~~~~~|
E|----------------|----------|------------|---------------|

| /  slide up
| \  slide down
| h  hammer-on
| p  pull-off
| ~  vibrato
| +  harmonic
| x  Mute note
Добавлено: 29.05.2016
Вам также может быть интересно:
Другие материалы по этой песне:
  • Аккорды и текст

Страница создана 29.05.2016
http://primanota.ru/portico-quartet/prickly-pear-chords.htm
Привет, Гость.
Предлагаем пройти революционный курс по гитаре.
Подарок от PrimaNota.Ru, забирай!