PrimaNota.ru - самый крупный в мире бесплатный архив песенных текстов, аккордов, табулатур и нот


Portico Quartet - Pompidou - таба, видео

Регистрация Запомнить меня
Войти через:  Facebook Google Twitter Vk Yandex Mail.ru

Portico Quartet - Pompidou - таба, видео

Печатать
Просмотров: 58
-----------------------------------------------------------------
                   Pompidou - Portico Quartet
-----------------------------------------------------------------

Tabbed By : Aeonoptic
e-mail: aeonoptic@gmail.com

Tuning: EADGBe

I believe the harmony simply alternates between Cm7 and G7b9, though I'm not 100% certain

Hang drum intro 

E|8-----8----|6-----6----|4-3-3-4-3-3|4-3-3-4-3-6|
B|--8-8---8-8|--8-8---8-8|-----------|-----------|
G|-----------|-----------|-----------|-----------|
D|-----------|-----------|-----------|-----------| x3
A|-----------|-----------|-----------|-----------|
E|-----------|-----------|-----------|-----------|

E|8-----8----|6-----6----|4-3-3-4-3-3|-----------|
B|--8-8---8-8|--8-8---8-8|-----------|----------8|
G|-----------|-----------|-----------|-----------|
D|-----------|-----------|-----------|-----------|
A|-----------|-----------|-----------|-----------|
E|-----------|-----------|-----------|-----------|

  On 3rd repeat a second drum comes in
E|11----11-10-8|-------|11-10-8-11-10-8|-------|11-10-8-11-10-8|------------|11-10-8-11-10-8|-------|
B|-------------|11----8|---------------|11----8|---------------|11----8--9-8|---------------|11----8|
G|-------------|-------|---------------|-------|---------------|------------|---------------|-------|
D|-------------|-------|---------------|-------|---------------|------------|---------------|-------|
A|-------------|-------|---------------|-------|---------------|------------|---------------|-------|
E|-------------|-------|---------------|-------|---------------|------------|---------------|-------|

Saxophone
E|-------------|-------|------------|8~~--------|-------------------|-------|----------|----------|
B|8~~--8h9-8---|8h9-8~~|8h9-8----8-9|-----11-9-8|-----7-8~--8h9-8---|8h9-8~~|8h9-8----8|8---------|
G|-----------10|-------|------10----|-----------|8-10-------------10|-------|------10--|--8\7--/8~|
D|-------------|-------|------------|-----------|-------------------|-------|----------|----------|
A|-------------|-------|------------|-----------|-------------------|-------|----------|----------|
E|-------------|-------|------------|-----------|-------------------|-------|----------|----------|

E|-------------|-------|------------|8~~--------|-------------------|-------|----------|----------|
B|8~~--8h9-8---|8h9-8~~|8h9-8----8-9|-----11-9-8|-----7-8~--8h9-8---|8h9-8~~|8h9-8----8|8---------|
G|-----------10|-------|------10----|-----------|8-10-------------10|-------|------10--|--8\7--/8~|
D|-------------|-------|------------|-----------|-------------------|-------|----------|----------|
A|-------------|-------|------------|-----------|-------------------|-------|----------|----------|
E|-------------|-------|------------|-----------|-------------------|-------|----------|----------|

E|-------|8~~----|----------|---------|-------|8----|----------|15tr16|15~~--15h16-15---|15h16--14/15~~|
B|8---9-8|-------|----------|---------|8---9-8|-----|------8tr9|------|---------------18|--------------|
G|-------|-----8~|10/12~~--7|10-8-----|-------|-----|8-10------|------|-----------------|--------------|
D|-------|-------|----------|------10~|-------|-----|----------|------|-----------------|--------------|
A|-------|-------|----------|---------|-------|-----|----------|------|-----------------|--------------|
E|-------|-------|----------|---------|-------|-----|----------|------|-----------------|--------------|

E|15h16-15----15-16|20~~--18-16-15~|------14-15~--15h16-15---|15h16-14/15~|15h16-15----15|15h16-14/15~~|
B|---------18------|---------------|16-18------------------18|------------|---------18---|-------------|
G|-----------------|---------------|-------------------------|------------|--------------|-------------|
D|-----------------|---------------|-------------------------|------------|--------------|-------------|
A|-----------------|---------------|-------------------------|------------|--------------|-------------|
E|-----------------|---------------|-------------------------|------------|--------------|-------------|

E|15h16-15----15~~|-------------|15~~--15h16-15---|15h16--15~~|15h16-15----15-16|20~~--18-16-15~|
B|---------18-----|16-15~~--16~~|---------------18|-----------|---------18------|---------------|
G|----------------|-------------|-----------------|-----------|-----------------|---------------|
D|----------------|-------------|-----------------|-----------|-----------------|---------------|
A|----------------|-------------|-----------------|-----------|-----------------|---------------|
E|----------------|-------------|-----------------|-----------|-----------------|---------------|

E|------14-15~--15h16-15---|15h16-14/15~|15h16-15----15|15~~|-----------|
B|16-18------------------18|------------|---------18---|----|18-16--15~~|
G|-------------------------|------------|--------------|----|-----------|
D|-------------------------|------------|--------------|----|-----------|
A|-------------------------|------------|--------------|----|-----------|
E|-------------------------|------------|--------------|----|-----------|

E|-------|8~~----|----------|---------|-------|8----|----------|15tr16|
B|8---9-8|-------|----------|---------|8---9-8|-----|------8tr9|------|
G|-------|-----8~|10/12~~--7|10-8-----|-------|-----|8-10------|------|
D|-------|-------|----------|------10~|-------|-----|----------|------|
A|-------|-------|----------|---------|-------|-----|----------|------|
E|-------|-------|----------|---------|-------|-----|----------|------|

  Solo
E|15--18-16-15-------|---------------|-------------------|-----------|15-18-16--15h16-15----15~|
B|-------------15-16~|15-16-15-------|-------------------|-----------|-------------------18----|
G|-------------------|---------------|---15--------------|15---------|-------------------------|
D|-------------------|---------18-17~|17----18-17--------|----18--17~|-------------------------|
A|-------------------|---------------|-------------17-18~|-----------|-------------------------|
E|-------------------|---------------|-------------------|-----------|-------------------------|

E|15-18-16-15h16-15----15~|15h16-15----15----------------|-------------------------|
B|------------------16----|---------16-----18p16p15h16p15|16p15----15--16p15-16-15~|
G|------------------------|------------------------------|------17-----------------|
D|------------------------|------------------------------|-------------------------|
A|------------------------|------------------------------|-------------------------|
E|------------------------|------------------------------|-------------------------|

E|15------------------|-------------------|--------------------|---------|------------------------|
B|---18-16--15--------|18-16-15-----------|15------------------|---------|----------13/15---------|
G|-------------17-----|----------17-------|---17---------------|---------|------15--------15------|
D|----------------17~~|-------------17-15~|------17~--15-------|---------|15-17--------------15-15|
A|--------------------|-------------------|--------------18-17~|15-17-18\|------------------------|
E|--------------------|-------------------|--------------------|---------|------------------------|

E|--------------|-----------------|--------|-------------------|----|
B|---------15---|-----------------|--------|-------------------|----|
G|------15----17|-----------------|--------|-------------------|----|
D|15-17---------|17----------15-17|15h17p15|17--15h17h18--17---|----|
A|--------------|---18-17-18------|--------|-----------------17|18~~|
E|--------------|-----------------|--------|-------------------|----|

Outro is similar to intro, but misses the last bar of the 8-bar sequence

E|8-----8----|6-----6----|4-3-3-4-3-3|4-3-3-4-3-6|
B|--8-8---8-8|--8-8---8-8|-----------|-----------|
G|-----------|-----------|-----------|-----------|
D|-----------|-----------|-----------|-----------| 
A|-----------|-----------|-----------|-----------|
E|-----------|-----------|-----------|-----------|

E|8-----8----|6-----6----|4-3-3-4-3-3|
B|--8-8---8-8|--8-8---8-8|-----------|
G|-----------|-----------|-----------|
D|-----------|-----------|-----------|
A|-----------|-----------|-----------|
E|-----------|-----------|-----------|

E|11----11-10-8|-------|11-10-8-11-10-8|-------|11-10-8-11-10-8|------------|11-10-8-11-10-8|
B|-------------|11----8|---------------|11----8|---------------|11----8--9-8|---------------|
G|-------------|-------|---------------|-------|---------------|------------|---------------|
D|-------------|-------|---------------|-------|---------------|------------|---------------|
A|-------------|-------|---------------|-------|---------------|------------|---------------|
E|-------------|-------|---------------|-------|---------------|------------|---------------|

| /  slide up
| \  slide down
| h  hammer-on
| p  pull-off
| ~  vibrato
| +  harmonic
| x  Mute note
Добавлено: 29.05.2016
Вам также может быть интересно:
Другие материалы по этой песне:
  • Аккорды и текст

Страница создана 29.05.2016
http://primanota.ru/portico-quartet/pompidou-chords.htm
Привет, Гость.
Предлагаем пройти революционный курс по гитаре.
Подарок от PrimaNota.Ru, забирай!