PrimaNota.ru - самый крупный в мире бесплатный архив песенных текстов, аккордов, табулатур и нот


Porter - Murcielago - таба, видео

Регистрация Запомнить меня
Войти через:  Facebook Google Twitter Vk Yandex Mail.ru

Porter - Murcielago - таба, видео

Печатать
Просмотров: 43
INTRO:

   A    E      F#     B
e|--------------------------|
B|-5-5--0-0-0--2-2-2--7-7-7-|
G|-6-6--1-1-1--3-3-3--8-8-8-|
D|-7-7--2-2-2--4-4-4--9-9-9-|
A|--------------------------|
E|--------------------------|

   C#m             B   C#m
e|-9-9-9-9-9-9--9--7-7\9--9-|
B|-9-9-9-9-9-9--9--7-7\9--9-|
G|-X-X-X-X-X-X--X--X-X\X--X-|
D|--------------------------|
A|--------------------------|
E|--------------------------|

VERSO:

   C#m    B      C#m    B
e|----------------------------|
B|-9--9---7-7-7--9--9---7-7-7-|
G|-9--9---8-8-8--9--9---8-8-8-|
D|-11-11--9-9-9--11-11--9-9-9-|
A|----------------------------|
E|----------------------------|

   A    E      A    E  
e|------------------------|
B|-5-5--0-0-0--5-5--0-0-0-|
G|-6-6--1-1-1--6-6--1-1-1-|
D|-7-7--2-2-2--7-7--2-2-2-|
A|------------------------|
E|------------------------|

INTERLUDE:

   A  G#
e|------|
B|-5--4-|
G|-6--5-|
D|-7--6-|
A|------|
E|------|

CORO:

   C#m                B            A
e|---------------------------------------------|
B|-9--9--9--9--9--9---7-7-7-7-7-7--5-5-5-5-5-5-|
G|-9--9--9--9--9--9---8-8-8-8-8-8--6-6-6-6-6-6-|
D|-11-11-11-11-11-11--9-9-9-9-9-9--7-7-7-7-7-7-|
A|---------------------------------------------|
E|---------------------------------------------|

SOLO:

   E     C#m B  C#m A  C#m B  C#m
e|---------------------------------|
B|-----12---9--7---9--5---9--7---9-|
G|---13----9--8---9--6---9--8---9--|
D|-14----11--9--11--7--11--9--11---|
A|---------------------------------|
E|---------------------------------|

e|-------------------------------------------------------|
B|---12-12-12-12-12-14-----------12-12-----------12-12---|
G|-13-----------------13-13-13-13-----13-13-13-13-----13-|
D|-------------------------------------------------------|
A|-------------------------------------------------------|
E|-------------------------------------------------------|

FINAL:

e|-----------|
B|-----------|
G|-----------|
D|-----------|
A|---7-----6-|
E|-9---9-8---|

e|-----------|
B|-----------|
G|-----------|
D|-----------|
A|---5-----4-|
E|-7---7-6---|

e|--------------|
B|--------------|
G|--------------|
D|--------------|
A|----9-------8-|
E|-11---11-10---|


Video: youtube.com/watch?v=H_J5v7fbCfQ
Добавлено: 30.11.2015
Другие материалы по этой песне:
  • Аккорды и текст

Страница создана 30.11.2015
http://primanota.ru/porter/murcielago-chords.htm
Привет, Гость.
Предлагаем пройти революционный курс по гитаре.
Подарок от PrimaNota.Ru, забирай!