PrimaNota.ru - самый крупный в мире бесплатный архив песенных текстов, аккордов, табулатур и нот


Porter Robinson - Worlds (album) - аккорды и текст, видео

Регистрация Запомнить меня
Войти через:  Facebook Google Twitter Vk Yandex Mail.ru

Porter Robinson - Worlds (album) - аккорды и текст, видео

Печатать
Просмотров: 159
Worlds (album)
Porter Robinson
This is a collection of tabs from Porter Robinson's album Worlds. Sadly, I could not tab some of the songs on
the album, but if they ever do show up they will be added immediately. To make up for this, I have included 3
extra tabs including live versions of songs from the album! If anything is wrong, let me know and I'll fix it 
right away! Please enjoy!

---------------------------------------------------------------------------------------------------------------
Track 1: Divinity (feat. Amy Millan of Stars)
---------------------------------------------------------------------------------------------------------------
Original Tab:
http://tabs.ultimate-guitar.com/p/porter_robinson/divinity_crd.htm

Note: The F#m can also be played as F#

Intro:
Part 1 [x3]
G D G Bm
G D F#m G

Part 2 [x4] - Strum each chord once and let ring for 8 beats 

G    D

[Strum Once]

G
Lean into my side
D
Never felt alive
G
Call the chants inside
D
We will wait for this

We will wait for this

[Strum Once]

G
Lean into my side
D
Never felt alive
G
Call the chants inside
D
We will wait for this

We will wait for this

[Gradually Strum Faster]

G
Lean into my side
D
Never felt alive
G
Call the chants inside
D

G G D A [x2]

G
We will wait for this
D       A
We will wait for this
G
We will wait for this
D       A
We will wait for this

G G D A [x2]

[Strum Once]

G
Lean into my side
D
Never felt alive
G
Call the chants inside
D
We will wait for this

We will wait for this

G
Lean into my side
D
Never felt alive
G
Call the chants inside
D

G G D A [x2]

G
We will wait for this
D       A
We will wait for this
G
We will wait for this
D       A

G
Lean into my side
D
Never felt alive
G
Call the chants inside
D

G
Lean into my side
D
Never felt alive
G
Call the chains inside
D
You see right through me

---------------------------------------------------------------------------------------------------------------
Track 2: Sad Machine
---------------------------------------------------------------------------------------------------------------
Original Tab:
http://tabs.ultimate-guitar.com/p/porter_robinson/sad_machine_crd.htm

Intro/Main Riff:

e|-------------18-15-18-15-----|
B|16--16--16----------------18-|
G|-----------------------------| X3
D|-----------------------------|
A|-----------------------------|
E|-----------------------------|


e|------------18--20--15--15------|
B|16--16--16------------------18--|
G|--------------------------------| X1
D|--------------------------------|
A|--------------------------------|
E|--------------------------------|

Is anyone there?
Oh-
Hi!

Intro: Ab Ab Eb Fm x2
       Ab Ab Cm Fm x2

Ab                          Eb          Fm
Who Survived? Somebody new. Anyone else but you
Ab
On a lonely night was a burning light
Cm                        Fm
A hundred leaders will be born a new

Chorus:

Ab
And though I know
Ab
Since you've awakened her again
Cm
She depends on you
Fm
She depends on you
Ab
She'll go alone
Ab
And never speak of this again
Cm
We depend on you
Fm
We depend on you
Ab
And though I know
Ab
Since you've awakened her again
Cm
She depends on you
Fm
She depends on you
Ab
She'll go alone
Ab
And never speak of this again
Cm
We depend on you
Fm
We depend on you

I depend on you

[Playing with riff]
Ab Ab Cm Fm x2

Bridge:

Dm                      Eb                     Ab                     Ab  
I don't know much about your life beyond these warm walls
Dm                      Eb                     Ab                     Ab
The fleeting sense of love within these god forsaken homes
Bb                      Eb                     Ab                     Ab
And I can hear it in his voice, in every call
Dm                      Eb                     Ab                     Ab
This girl who slept a hundred years had something after all

e|-------------18-15-18-15-----|
B|16--16--16----------------18-|
G|-----------------------------| X3
D|-----------------------------|
A|-----------------------------|
E|-----------------------------|


e|------------18--20--15--15------|
B|16--16--16------------------18--|
G|--------------------------------| X1
D|--------------------------------|
A|--------------------------------|
E|--------------------------------|

Chorus:

Ab
And though I know
Ab
Since you've awakened her again
Cm
She depends on you
Fm
She depends on you
Ab
I'll go alone
Ab
And never speak of this again
Cm
We depend on you
Fm
We depend on you
Ab
And though I know
Ab
Since you've awakened her again
Cm
She depends on you
Fm
She depends on you
Ab
She'll go alone
Ab
And never speak of this again
Cm
We depend on you
Fm
We depend on you

I depend on you

Ab Ab Cm Fm x2

Play!

Ab Ab Cm Fm x2

e|------------|
B|16--16--16--|
G|------------|
D|------------|
A|------------|
E|------------|

---------------------------------------------------------------------------------------------------------------
Track 3: Years of War (feat.  Breanne Düren and Sean Caskey of Last Dinosaurs)
---------------------------------------------------------------------------------------------------------------
Original Tab:
http://tabs.ultimate-guitar.com/p/porter_robinson/years_of_war_crd.htm

Intro [x4]:
E Abm F#
E B F#

Abm                                               F#                           Dbm
Take one last look at what you're leaving behind, cause there's no coming back once we go
Abm                                               F#                           Dbm
We are the children of an innocent crime, and its time to take down the throne
E                               Abm                        F#                   F#
Although their heads may shake, we'll set the city ablaze for their treachery
E                               Abm                        F#                   F#
We'll spill their blood and set our fathers free

E       Abm          F#
Oohooh, two hundred years of 
E       Abm          F#
War, fight till we are no
E       Abm          F#
More, a curse on the streets of gold, oohooh
E
Just know
Abm       F#
That mine is a hand to
E       Abm          F#
Hold, Take back what the kingdom
E       Abm          F#
Stole, a curse on the streets of gold

Break [x4]:
E Abm F#
E B F#

E       Abm          F#
Oohooh, two hundred years of 
E       Abm          F#
War, fight till we are no
E       Abm          F#
More, a curse on the streets of gold, oohooh
E
Just know
Abm       F#
That mine is a hand to
E       Abm          F#
Hold, Take back what the kingdom
E       Abm          F#
Stole, a curse on the streets of gold

Break [x4]:
E Abm F#
E B F#

End:
B Ebm E F#
Dbm B Dbm B

---------------------------------------------------------------------------------------------------------------
Track 4: Flicker
---------------------------------------------------------------------------------------------------------------

Solo tab by BJorn_LuLszic:
http://tabs.ultimate-guitar.com/p/porter_robinson/flicker_solo_tab.htm

Chords by Noah Mead:
http://tabs.ultimate-guitar.com/p/porter_robinson/flicker_crd.htm

Solo/Melody
e|---------------------------------------------------------------------------|
B|-------14--12-------12----14-16-14-12----14--12----------------------------|
G|-----------------12----12--------------------------------------------------|
D|---------------------------------------------------------------------------| X4
A|---------------------------------------------------------------------------|
E|---------------------------------------------------------------------------|

Extended Solo
e|-----------------------------16--14------16--14----------------------------|
B|----------12----14-16-14-12----------12----------12------------------------|
G|-------12----12------------------------------------------------------------|
D|---------------------------------------------------------------------------|
A|---------------------------------------------------------------------------|
E|---------------------------------------------------------------------------|



Note: You can also play the Abm in the loop as Ab

Intro[x4]: Bbm Abm F#

Bbm Abm F#
Watashi wa choudo nani ga juuyou ka

Bbm Abm F#
Watashi wa choudo nani ga juuyou ka

Bbm Abm F#
Watashi wa choudo nani ga juuyou ka

Bbm Abm F#
Mitsukeyou toshite iru


Bbm Abm F#
Watashi wa choudo nani ga juuyou ka

Bbm Abm F#
Watashi wa choudo nani ga juuyou ka

Bbm Abm F#
Watashi wa choudo nani ga juuyou ka

Bbm Abm Bbm Abm


[x8]
Bbm Abm F#
(Chopped Vocals)

[x4]
Ebm Bbm

[x8]
Bbm (Singe Strum, hold for 8 beats each)

[x4]
Ebm Bbm

Watashi wa choudo nani ga juuyou

[x16]
F# Ebm Ebm Ebm


Bbm Abm F#
Watashi wa choudo nani ga juuyou ka

Bbm Abm F#
Watashi wa choudo nani ga juuyou ka

Bbm Abm F#
Watashi wa choudo nani ga juuyou ka

Bbm Abm F#
Mitsukeyou toshite iru


Bbm Abm F#
Watashi wa choudo nani ga juuyou ka

Bbm Abm F#
Watashi wa choudo nani ga juuyou ka

Bbm Abm F#
Watashi wa choudo nani ga juuyou ka

Bbm Abm Bbm Abm

[x8]
F# Ebm Ebm Ebm

---------------------------------------------------------------------------------------------------------------
Track 5: Fresh Static Snow
---------------------------------------------------------------------------------------------------------------
Original Tab:
http://tabs.ultimate-guitar.com/p/porter_robinson/fresh_static_snow_crd.htm

Intro:
F#(m) [Play for 4 bars of 16 beats]

F#m D Bm E [x2]

A                              D           Bm                      D
You fit perfectly to me in the loneliness, melt this curse away
A                 D              Bm                   D
Though I'll never know your name I'll cry for you the same

A                              D           Bm                      D
You fit perfectly to me in the loneliness, melt this curse away
A                 D              Bm                   E
Though I'll never know your name I'll cry for you the same

[x2]
F#m D Bm E


F#m                            D           Bm                      E
You fit perfectly to me in the loneliness, melt this curse away
D                 A              Bm
Though I'll never know your name I'll cry for you the same

A                              Dbm         F#m
You fit perfectly to me in the loneliness, melt this curse away
A                 D                                   E
Though I'll never know your name I'll cry for you the same

[x4]
F#m D Bm E

A
F#m
Melt this curse away
A
F#m
Cry for you the same

[x4]
A F#m


F#m                    E      Bm         A       Bm     A
Don't move so lightly, static snow, that is your memory
F#m             E           D           A        Bm     E
Although I know we'll never meet you're in every part of me
A                 E            F#m         E
You fit perfectly to me in the loneliness, melt this curse away
D           F#m             E    D            A       Bm
Though I'll never know your name I'll cry for you the same

A

---------------------------------------------------------------------------------------------------------------
Track 6: Polygon Dust (feat. Lemaitre)
---------------------------------------------------------------------------------------------------------------
Original Tab:
http://tabs.ultimate-guitar.com/p/porter_robinson/polygon_dust_crd.htm

Intro [x4]:
Cm Bb Fm Ab
Cm Bb Ab Ab

Cm          Bb
Taking back wasted,
Eb          Ab
time that we've spent.
Cm          Bb
Walking round wastin',
Eb          Ab
tracing back the steps.
Cm          Bb
Oh I can taste it,
Eb          Ab
the secrets I've kept.
Cm          Bb
Walking round wasted,
Eb          Ab
and I'll take what I can get.

Break [x4]:
Cm Bb Eb Ab
Cm Bb Fm Ab

Cm          Bb
Taking back wasted,
Eb          Ab
time that we've spent.
Cm          Bb
Walking round wastin',
Eb          Ab
tracing back the steps.
Cm          Bb
Oh I can taste it,
Eb          Ab
the secrets I've kept.
Cm          Bb
Walking round wasted,
Eb          Ab


Eb
(It's how I feel)
Fm
To late to turn
Eb
(It's how I deal with you)
Fm
To late to turn

(It's how I feel)

Cm          Bb
Taking back wasted,
Cm          Bb

Cm          Bb
Oh I can taste it,
Cm          Bb
(It's how I feel)

Cm
Walking round wastin',
Bb
the secret I have kept.
Fm
Walking round wasted,
Ab
...take what I can get.

End:
Cm Bb Fm Ab

Cm Bb Ab Ab

Cm Gm Fm Ab

Cm Gm Fm Ab

Cm Gm Fm Ab

Cm Gm Fm Ab

Cm

---------------------------------------------------------------------------------------------------------------
Track 7: Hear the Bells (with Imaginary Cities)
---------------------------------------------------------------------------------------------------------------
Original Tab:
http://tabs.ultimate-guitar.com/p/porter_robinson/hear_the_bells_crd.htm

Note:
(G) can be played optionally after the second C

No Capo

Intro:
F G F G [x2]

F
Living in a cruel world
C
Trudging with my feet in the snow
F
On a day out
C                   (G)
And in to the night now
F
I think I need a doctor
C
Cause I've been walking by the side of the road
F
For a long time
C                   (G)
And I'm going out of my mind

F
It's so far from me now
G
But oh I can hear the sound
F
It's so far from me now
G
But oh I can hear the sound

C
F
Can't you hear the bells sing in Cologne
C
F
You won't hear it on the radio
C
F
Madness is a hero carnival
C
F
Can't you hear the bells?

F
Sitting on a rooftop
C                   (G)
Crazy days are coming again
F
I've been running
C                   (G)
But I'll be hidden in the masquerade

F
It's so far from me now
G
But oh I can hear the sound
F
It's so far from me now
G
But oh I can hear the sound

C
F
Can't you hear the bells sing in Cologne
C
F
You won't hear it on the radio
C
F
Madness is a hero carnival
C
F
Can't you hear the bells?

F
It's so far from me now
G
But oh I can hear the sound
F
It's so far from me now
G
But oh I can hear the sound

[Strum Once for the first two lines then gradually strum faster]

F
It's so far from me now
G
But oh I can hear the sound
F
It's so far from me now
G
But oh I can hear the sound

C
F
Can't you hear the bells sing in Cologne
C
F
You won't hear it on the radio
C
F
Madness is a hero carnival

You won't hear it on the radio

C
F
Can't you hear the bells sing in Cologne
C
F
You won't hear it on the radio
C
F
Madness is a hero carnival
C
F
Can't you hear the bells sing in Cologne

C F [x5]

---------------------------------------------------------------------------------------------------------------
Track 8: Natural Light
---------------------------------------------------------------------------------------------------------------

As much as I love this song, I could not tab it, however, try to tab / play it yourself using Chordify:
http://chordify.net/chords/porter-robinson-natural-light-audio-porterrobinsonvevo

---------------------------------------------------------------------------------------------------------------
Track 9: Lionhearted (feat. Urban Cone)
---------------------------------------------------------------------------------------------------------------
Original Tab:
http://tabs.ultimate-guitar.com/p/porter_robinson/lionhearted_crd.htm

This is tabbed from the music video of the song so it's slightly shorter

Intro [Also Plays throughout most of the song]:

Eb [x4]

e|------------------------------------------------------------------------------|
B|----------------4-------------------4-------------------4-------------------4-|
G|------3----5---------0----3----5---------0----3----5---------0----3----5------|
D|-1----------------------------------------------------------------------------|
A|------------------------------------------------------------------------------|
E|------------------------------------------------------------------------------|

Cm                     Gm                                      Cm    Cm
Flipping out the light trying to survive this endless fight
Cm                     Gm                                      Cm    Cm
If we shoot them down, we can make it right, we'll make it right
Cm                     Gm                                      Cm    Cm
And they light the sky as they multiply, they multiply
Cm                     Gm
No matter what they try, they won't take away our will to fight
Bb
If we shoot them down, we can make it right, we'll make it right

[*In my opinion, this part sounds great if you pluck the G and high E strings in the Cm chord]

Cm
They broke the walls we guarded
Cm
But we don't care about it
Cm
We'll finish what we started
Cm
So promise me that
Cm
We'll be the lionhearted
Cm
For we don't care about it
Cm
We'll finish what we started
Bb [Strum]
So promise me that they'll fall

Ab Cm Fm Cm
Ab Cm Gm Cm
Ab Cm Fm Cm
Ab Cm Gm (Ab)

Bb
So promise me that

Cm                     Gm                                      Cm    Cm
No matter what they try, they won't take away our will to fight
Cm                     Gm                                      Cm    Cm
If we shoot them down, we can make it right, we'll make it right
Cm                     Gm                                      Cm    Cm
And up against all odds, take a thousand lives, a thousand lives
Bb
So if you shoot them down, we can make it right, we'll make it right

Ab
Cm
They broke the walls we guarded
Fm
Cm
But we don't care about it
Ab
Cm
We'll finish what we started
Fm
Bb
So promise me that

Eb
We'll be the lionhearted
Ab
For we don't care about it
Eb
We'll finish what we started
Ab
So promise me that

They'll fall

Ab Cm Fm Cm
Ab Eb Ab Cm

Ab Cm Fm Cm
Ab Cm Gm (Ab) Cm

Eb
They broke the walls we guarded
Ab
But we don't care about it
Eb
We'll finish what we started
Ab
So promise me they'll fall
Eb
They'll fall

---------------------------------------------------------------------------------------------------------------
Track 10: Sea of Voices (feat. Breanne Düren)
---------------------------------------------------------------------------------------------------------------

As much as I love this song, I could not tab it, however, try to tab / play it yourself using Chordify:
http://chordify.net/chords/porter-robinson-sea-of-voices-audio-porterrobinsonvevo

---------------------------------------------------------------------------------------------------------------
Track 11: Fellow Feeling (feat. Amanda Lee)
---------------------------------------------------------------------------------------------------------------

As much as I love this song, I could not tab it, however, try to tab / play it yourself using Chordify:
http://chordify.net/chords/porter-robinson-fellow-feeling-audio-porterrobinsonvevo

---------------------------------------------------------------------------------------------------------------
Track 12: Goodbye To a World
---------------------------------------------------------------------------------------------------------------
Original Tab:
http://tabs.ultimate-guitar.com/p/porter_robinson/goodbye_to_a_world_crd.htm

Note: I suggest that you play the D barre chord because I find it much easier to get to 
the Dbm doing so

Intro[x8]: D Dbm Bm F#m
or

e|-5-4-2----5-----5-4-----5-----5-4-----5-----5-4-----5-----5-4--|
B|-------3-----3-------2-----2-------0-----0---------------------|
G|-------------------------------------------------2-----2-------|
D|---------------------------------------------------------------|
A|---------------------------------------------------------------|
E|---------------------------------------------------------------|

D          A
Thank you, I'll say goodbye soon
D                                F#m
Though its the end of the world, don't blame yourself now
D                A
And if its true, I will surround you
D
And give life to a world
F#m
That's our own

D          Dbm
Thank you, I'll say goodbye now
Bm                               F#m
Though its the end of the world, don't blame yourself
D                Dbm
And if its true, I will surround you
Bm
And give life to a world
F#m
That's our own

Break [x2]:
e|-5-4-2----5-----5-----5-4-0---------5-----5-7-9-12--|
B|-------3-----3-----2--------2----3-----3----------9-|
G|----------------------------------------------------|
D|----------------------------------------------------|
A|----------------------------------------------------|
E|----------------------------------------------------|

D          Dbm
Thank you, I'll say goodbye now
Bm                               F#m
Though its the end of the world, don't blame yourself
D                Dbm
And if its true, I will surround you
Bm
And give life to a world...

[x2]
D Dbm Bm F#m

D          Dbm
Thank you, I'll say goodbye now
Bm                               F#m
Though its the end of the world, don't blame yourself
D                Dbm
And if its true, I will surround you
Bm
And give life to a world
F#m
That's our own

Thank you, I'll say goodbye soon

Though its the end of the world, don't blame yourself now
D
And if its true, I will surround...

---------------------------------------------------------------------------------------------------------------
Bonus Tab 1: Sad Machine Live Medley
---------------------------------------------------------------------------------------------------------------
Original Tab:
http://tabs.ultimate-guitar.com/p/porter_robinson/sad_machine_live_tab.htm

Live performance I tabbed it from:
https://www.youtube.com/watch?v=kgr_QTgMC0Y

As with any tab, if you can't reach the higher frets feel free to play them on the lower frets!
An example being playing on the 4th fret instead of the 16th!

Extended Intro/Main Riff:

e|-------------18-15-18-15-----|
B|16--16--16----------------18-|
G|-----------------------------| X3
D|-----------------------------|
A|-----------------------------|
E|-----------------------------|

e|------------18--20--15--15------|
B|16--16--16------------------18--|
G|--------------------------------| X1
D|--------------------------------|
A|--------------------------------|
E|--------------------------------|

e|-------------18-15-18-15-----|
B|16--16--16----------------18-|
G|-----------------------------| X3
D|-----------------------------|
A|-----------------------------|
E|-----------------------------|

e|-----------|
B|16--16--16-|
G|-----------| X1
D|-----------|
A|-----------|
E|-----------|

e|-------------18-15-18-15-----|
B|16--16--16----------------18-|
G|-----------------------------| X3
D|-----------------------------|
A|-----------------------------|
E|-----------------------------|

e|------------18--20--15--15------|
B|16--16--16------------------18--|
G|--------------------------------| X1
D|--------------------------------|
A|--------------------------------|
E|--------------------------------|

e|-------------18-15-18-15-----|
B|16--16--16----------------18-|
G|-----------------------------| X3
D|-----------------------------|
A|-----------------------------|
E|-----------------------------|

e|------------------------|
B|16--16--16--18--18--18--|
G|------------------------| X1
D|------------------------|
A|------------------------|
E|------------------------|


Is anyone there?
Oh-
Hi!

Intro: Ab Ab Eb Fm x2
       Ab Ab Cm Fm x2

Ab                          Eb          Fm
Who Survived? Somebody new. Anyone else but you
Ab
On a lonely night was a burning light
Cm                        Fm
A hundred leaders will be born a new

Chorus:

Ab
And though I know
Ab
Since you've awakened her again
Cm
She depends on you
Fm
She depends on you
Ab
She'll go alone
Ab
And never speak of this again
Cm
We depend on you
Fm
We depend on you
Ab
And though I know
Ab
Since you've awakened her again
Cm
She depends on you
Fm
She depends on you
Ab
She'll go alone
Ab
And never speak of this again
Cm
We depend on you
Fm
We depend on you

I depend on you

Ab Ab Cm Fm x8

or

[Play Twice]
e|-------------18-15-18-15-----|
B|16--16--16----------------18-|
G|-----------------------------| X3
D|-----------------------------|
A|-----------------------------|
E|-----------------------------|

e|------------18--20--15--15------|
B|16--16--16------------------18--|
G|--------------------------------| X1
D|--------------------------------|
A|--------------------------------|
E|--------------------------------|


[Then Play This]
e|------------|
B|16--16--16--|
G|------------| X1
D|------------|
A|------------|
E|------------|

e|------------------------15--|
B|16--16--16--18--18--18------|
G|----------------------------| X1
D|----------------------------|
A|----------------------------|
E|----------------------------|

[Play Three Times]
e|-------------18-15-18-15-----|
B|16--16--16----------------18-|
G|-----------------------------| X3
D|-----------------------------|
A|-----------------------------|
E|-----------------------------|

e|------------18--20--15--15------|
B|16--16--16------------------18--|
G|--------------------------------| X1
D|--------------------------------|
A|--------------------------------|
E|--------------------------------|

Bridge:

Dm                      Eb                     Ab                     Ab  
I don't know much about your life beyond these warm walls
Dm                      Eb                     Ab                     Ab
The fleeting sense of love within these god forsaken homes
Bb                      Eb                     Ab                     Ab
And I can hear it in his voice, in every call
Dm                      Eb                     Ab                     Ab
This girl who slept a hundred years had something after all

Bridge Part 2:

Arpeggio x4 [Play once on it's own then twice behind Song of Storms and once more as an outro]

Ab
e|--------4----| x4
B|-----4----4--|
G|--5----------|
D|-------------|
A|-------------|
E|-------------|
Gm
e|--------3----| x4
B|-----3----3--|
G|--3----------|
D|-------------|
A|-------------|
E|-------------|
Fm
e|--------1----| x4
B|-----1----1--|
G|--1----------|
D|-------------|
A|-------------|
E|-------------|
Cm
e|--------3----| x4
B|-----4----4--|
G|--5----------|
D|-------------|
A|-------------|
E|-------------|

Song of storms

e|--------16---------16---18--19-18-19-18-------------------------------------------------|
B|----------------------------------------19-16---16------------16-----16-----------------|
G|-----16---------16--------------------------------------16-18-----------------16-18-15--|
D|--18---------18-------------------------------------18--------------------18------------|
A|----------------------------------------------------------------------------------------|
E|----------------------------------------------------------------------------------------|

e|--------16---------16---18--19-18-19-18----------------------------------------|
B|----------------------------------------19-16---16------------16-----16--------|
G|-----16---------16--------------------------------------16-18------------------|
D|--18---------18-------------------------------------18--------------------18---|
A|-------------------------------------------------------------------------------|
E|-------------------------------------------------------------------------------|

Easy

e|--20--18-18----------|
B|-------------18--16--|
G|---------------------|
D|---------------------|
A|---------------------|
E|---------------------|

e|--20--18--18-----------------------------|
B|--------------18----13--16--13-16-18-13--|
G|-----------------------------------------|
D|-----------------------------------------|
A|-----------------------------------------|
E|-----------------------------------------|

Ab
Cause lovin you is easy 
Gm
Feel so in love in every way 
Fm
Cause lovin you is easy 
Cm
Feel so in love in every way

Chorus:

Ab
And though I know
Ab
Since you've awakened her again
Cm
She depends on you
Fm
She depends on you
Ab
I'll go alone
Ab
And never speak of this again
Cm
We depend on you
Fm
We depend on you

[Strum once until told not to]
Ab
And though I know
Eb
Since you've awakened her again
Fm
She depends on you
Eb
She depends on you
Ab
She'll go alone
Eb
And never speak of this again
Fm
We depend on you
Eb
We depend on you

Cm
And though I know
Eb
Since you've awakened her again
Bb
She depends on you
Bb
She depends on you

[Gradually Strum Faster]
Cm
She'll go alone
Eb
And never speak of this again
Bb
We depend on you
Bb
We depend

On you

Ab Ab Cm Fm x8

or

[Play Twice]
e|-------------18-15-18-15-----|
B|16--16--16----------------18-|
G|-----------------------------| X3
D|-----------------------------|
A|-----------------------------|
E|-----------------------------|

e|------------18--20--15--15------|
B|16--16--16------------------18--|
G|--------------------------------| X1
D|--------------------------------|
A|--------------------------------|
E|--------------------------------|

[Then Play this]
e|----------------------15---|
B|16--16--16----16--18-------|
G|---------------------------| X8
D|---------------------------|
A|---------------------------|
E|---------------------------|

Outro:

e|-------------18-15-18-15-----|
B|16--16--16----------------18-|
G|-----------------------------| X3
D|-----------------------------|
A|-----------------------------|
E|-----------------------------|

e|------------18--20--15--15------|
B|16--16--16------------------18--|
G|--------------------------------| X1
D|--------------------------------|
A|--------------------------------|
E|--------------------------------|

---------------------------------------------------------------------------------------------------------------
Bonus Tab 2: Bells Of Cologne
---------------------------------------------------------------------------------------------------------------
Original Tab:
http://tabs.ultimate-guitar.com/i/imaginary_cities/bells_of_cologne_crd.htm

Porter Robinson's 
Добавлено: 19.07.2015
Другие материалы по этой песне:
  • Аккорды и текст

Страница создана 19.07.2015
http://primanota.ru/porter-robinson/worlds-album-chords.htm
Привет, Гость.
Предлагаем пройти революционный курс по гитаре.
Подарок от PrimaNota.Ru, забирай!